Home » P » Paramore »

Paramore - Idle Worship Bass

Artists:  A B C D E F G H I J K L M N O P Q R S T U V W X Y Z # 

Idle Worship Bass

(ver. 1) Click to play this song!
Paramore
[Verse]
G|------------------------------------|-------------------------------------|
D|------------------------------------|-------------------------------------|
A|------------------------------------|-------------------------------------|
E|-11--11\--6--8-8--11--11\--6--8-8---|-10--10\--6--8-8--10-10\---3-3-3-----|

G|----------------------------------|-----------------------------------|
D|----------------------------------|-----------------------------------|
A|-----------6-6-------------6-6----|-5--5\----------8--8--10-10-10-----|
E|-4--4---8--------4--4---8---------|--------6--8-8---------------------|

G|------------------------------------|-------------------------------------|
D|------------------------------------|-------------------------------------|
A|------------------------------------|-------------------------------------|
E|-11--11\--6--8-8--11--11\--6--8-8---|-10--10\--6--8-8--10-10\---3-3-3-----|

G|----------------------------------|-----------------------------------|
D|----------------------------------|-----------------------------------|
A|-----------6-6-------------6-6----|-5--5\----------8--8--10-10-10-----|
E|-4--4---8--------4--4---8---------|--------6--8-8---------------------|

[Bridge]
G|---------------------|
D|---------------------|
A|---------------------|
E|-11-------10--8--3---|

[Chorus]
G|-----------------------------------------|-------------------------------------|
D|-----------------------------------------|-------------------------------------|
A|----------10-13-10-------------10-13-10--|------------10-13-10----------6-8-10-|
E|-4-----11-------------6-----11-----------|--4------11------------6-------------|

G|-----------------------------------------|-------------------------------------|
D|-----------------------------------------|-------------------------------------|
A|----------10-13-10-------------10-13-10--|------------10-13-10----------6-8-10-|
E|-4-----11-------------6-----11-----------|--4------11------------6-------------|

[Verse]
G|------------------------------------|-------------------------------------|
D|------------------------------------|-------------------------------------|
A|------------------------------------|-------------------------------------|
E|-11--11\--6--8-8--11--11\--6--8-8---|-10--10\--6--8-8--10-10\---3-3-3-----|

G|----------------------------------|-----------------------------------|
D|----------------------------------|-----------------------------------|
A|-----------6-6-------------6-6----|-5--5\----------8--8--10-10-10-----|
E|-4--4---8--------4--4---8---------|--------6--8-8---------------------|

G|------------------------------------|-------------------------------------|
D|------------------------------------|-------------------------------------|
A|------------------------------------|-------------------------------------|
E|-11--11\--6--8-8--11--11\--6--8-8---|-10--10\--6--8-8--10-10\---3-3-3-----|

G|----------------------------------|-----------------------------------|
D|----------------------------------|-----------------------------------|
A|----------------------------------|-5--5\----------8--8--10-10-10-----|
E|-4--4-----------------------------|--------6--8-8---------------------|

[Bridge]
G|---------------------|
D|---------------------|
A|---------------------|
E|-11-------10--8--3---|

[Chorus]
G|-----------------------------------------|-------------------------------------|
D|-----------------------------------------|-------------------------------------|
A|----------10-13-10-------------10-13-10--|------------10-13-10----------6-8-10-|
E|-4-----11-------------6-----11-----------|--4------11------------6-------------|

G|-----------------------------------------|-------------------------------------|
D|-----------------------------------------|-------------------------------------|
A|----------10-13-10-------------10-13-10--|------------10-13-10----------6-8-10-|
E|-4-----11-------------6-----11-----------|--4------11------------6-------------|

[Bridge]
G|--------------------------------|---8---------8------------------|
D|---10---------10----8---------8-|-----------------6---------6----|
A|--------------------------------|-6---6--6--6--------------------|
E|-8----8--8--8-----6---6--6--6---|---------------4---4--4--4------|

G|--------------------------------|---8---------8------------------|
D|---10---------10----8---------8-|-----------------6---------6----|
A|--------------------------------|-6---6--6--6--------------------|
E|-8----8--8--8-----6---6--6--6---|---------------4---4--4--4------|

G|--------------------------------|---8---------8------------------|
D|---10---------10----8---------8-|-----------------6---------6----|
A|--------------------------------|-6---6--6--6--------------------|
E|-8----8--8--8-----6---6--6--6---|---------------4---4--4--4------|

G|--------------------------------|---8---------8----------------|
D|---10---------10----8---------8-|------------------------------|
A|--------------------------------|-6---6--6--6------------------|
E|-8----8--8--8-----6---6--6--6---|---------------4--4--4--4--4--|

[Bridge]
G|--------------|
D|--------------|
A|--------------|
E|---10--8--3---|

[Outro]
G|-----------------------------------------|-------------------------------------|
D|-----------------------------------------|-------------------------------------|
A|----------10-13-10-------------10-13-10--|------------10-13-10----------6-8-10-|
E|-4-----11-------------6-----11-----------|--4------11------------6-------------|

G|-----------------------------------------|-------------------------------------|
D|-----------------------------------------|-------------------------------------|
A|----------10-13-10-------------10-13-10--|------------10-13-10----------6-8-10-|
E|-4-----11-------------6-----11-----------|--4------11------------6-------------|

G|-----------------------------------------|-------------------------------------|
D|-----------------------------------------|-------------------------------------|
A|----------10-13-10-------------10-13-10--|------------10-13-10----------6-8-10-|
E|-4-----11-------------6-----11-----------|--4------11------------6-------------|

G|-----------------------------------------|-------------------------------------|
D|-----------------------------------------|-------------------------------------|
A|----------10-13-10-------------10-13-10--|------------10-13-10----------6-8-10-|
E|-4-----11-------------6-----11-----------|--4------11------------6-------------|            
Submit corrections

↑ Back to top | Tablatures and chords for acoustic guitar and electric guitar, ukulele, drums are parodies/interpretations of the original songs. You may use it for private study, scholarship, research or language learning purposes only