» » »

Paramore - Forgiveness Tabs

Artists:  A B C D E F G H I J K L M N O P Q R S T U V W X Y Z # 

Forgiveness Tabs

(ver. 1) Click to play this song!
Paramore
 Rating:
4.3/5 (26 votes)


 Forgiveness  lessons Tabs too difficult? Try these video lessons and learn fast
 
                Paramore - Forgiveness Guitar Tab
Transcribed by Francis Sario

[Intro]
Left Speaker Guitar
e|------------------------------------|------------------------------------|
B|------------7-----------------------|------------7-----------------------|
G|----7------7--7-----------------4---|----7------7--7-----------------4---|
D|-------------------7--------------5-|-------------------7--------------5-|
A|--5---5--5--------------------------|--5---5--5--------------------------|
E|-----------------5----5-7-3---3-----|-----------------5----5-7-3---3-----|

Right Speaker Guitar
e|------0------0-2-------0---------0--|------0------0-2-------0---------0--|
B|----3--3----3--------3--3------3--3-|----3--3----3--------3--3------3--3-|
G|---2------2--------2---------2------|---2------2--------2---------2------|
D|--0------0--------------------------|--0------0--------------------------|
A|-----------------0------------------|-----------------0------------------|
E|--------------------------3---------|--------------------------3---------|


[Verse]
I
Left Speaker Guitar
e|------------------------------------|------------------------------------|
B|------------7-----------------------|------------7-----------------------|
G|----7------7--7-----------------4---|----7------7--7-----------------4---|
D|-------------------7--------------5-|-------------------7--------------5-|
A|--5---5--5--------------------------|--5---5--5--------------------------|
E|-----------------5----5-7-3---3-----|-----------------5----5-7-3---3-----|

Right Speaker Guitar
e|------------------------------------|------14------12------14------12----|
B|------------------------------------|--------15--------------15----------|
G|------------------------------------|----------(14)------------(14)------|
D|------------------------------------|------------------------------------|
A|------------------------------------|------------------------------------|
E|------------------------------------|------------------------------------|

II
Left Speaker Guitar
e|-----------------|------------------|-----------------|------------------|
B|------3-----3----|-------7-----5----|------3-----3----|-------7----10----|
G|----2-----2---2--|----4-----4---4---|----2-----2---2--|----4-----7-------|
D|--4-----4--------|--5-----5---------|--4-----4--------|--5-----7---------|
A|-----------------|------------------|-----------------|------------------|
E|-----------------|------------------|-----------------|------------------|

[Repeat Verse]

[Chorus]
Left Speaker Guitar  
e|------------------------------------|------------------------------------|
B|------------7-----------------------|------------7-----------------------|
G|----7------7--7-----------------4---|----7------7--7-----------------4---|
D|-------------------7--------------5-|-------------------7--------------5-| 2x
A|--5---5--5--------------------------|--5---5--5--------------------------|
E|-----------------5----5-7-3---3-----|-----------------5----5-7-3---3-----|

Right Speaker Guitar
B|--0------0-------0--------0---------|--0------0-------0--------0---------|
B|--3------3-------3--------3---------|--3------3-------3--------3---------|
G|--2------2-------2--------2---------|--2------2-------2--------2---------|
D|--0------0--------------------------|--0------0--------------------------| 2x
A|-----------------0------------------|-----------------0------------------|
E|--------------------------3---------|--------------------------3---------|

Do Verse

Bridge

e|-9--------10-----|--9--------10-----|---9------10-----|-9--9-----9-----9-------9-------9-|
B|-10-------12-----|--10-------12-----|--10------12-----|-10-10--10-10-10--10--10--10--10--|
B|-11-------12-----|--11-------12-----|--11------11-----|-9--9--9-----9------9-------9-----|
D|-----------------|------------------|-----------------|----------------------------------|
D|-----------------|------------------|-----------------|----------------------------------|
E|-----------------|------------------|-----------------|----------------------------------|

DO Chorus

Right Speaker Guitar (3:14) 
e|------0------0-2-------0---------0--|------0------0-2-------0---------0--|
B|----3--3----3--------3--3------3--3-|----3--3----3--------3--3------3--3-|
G|---2------2--------2---------2------|---2------2--------2---------2------|
D|--0------0--------------------------|--0------0--------------------------|
A|-----------------0------------------|-----------------0------------------|
E|--------------------------3---------|--------------------------3---------|

[Outro]

e|---------------------------------------------------------------------------|
B|---------------------------------------------------------------------------|
G|-----7---------7--------7--------7-----------------------------------------|
D|---7---------7--------7--------7-------------------------------------------|
A|-5---------5--------5--------5---------------------------------------------|
E|---------------------------------------------------------------------------|            
Submit corrections



        Forgiveness  lessons Hard to play? Try these video lessons and learn fast Forgiveness  lessons
        
↑ Back to top | Tablatures and chords for acoustic guitar and electric guitar, ukulele, drums are parodies/interpretations of the original songs. You may use it for private study, scholarship, research or language learning purposes only