» » »

Paramore - Fences Bass

Artists:  A B C D E F G H I J K L M N O P Q R S T U V W X Y Z # 

Fences Bass

(ver. 2) Click to play this song!
Paramore
 Rating:
4/5 (4 votes)


 Fences lessons Tabs too difficult? Try these video lessons and learn fast
 
                Bassist: Jeremy Davis
Tuning: Drop D
Timing: 3/4

_______________________________________________________________________________________________
READ THIS:
THIS WAS A REAL RUSH JOB, SO THERE WILL BE SOME MISTAKES. I'LL UPDATE IT AS I CHECK IT 
THROUGH. ALSO, LISTEN TO THE SONG FOR TIMINGS, SOME BITS MAY BE CONFUSING, BUT IF YOU LISTEN
THROUGH HEADPHONES AND CRANK THE BASS UP IT'S EASY ENOUGH TO FOLLOW THE TAB.
_______________________________________________________________________________________________

Intro:
G|--------|--------|--------|--------|--------|--------|--------|---------|
D|----0-20|----0-20|--2-0---|--2-4---|----0-20|----0-20|--2-0---|0---420--|
A|2-4-----|2-4-----|------4-|------4-|2-4-----|2-4-----|------4-|--4----4-|
D|--------|--------|4-------|4-------|--------|--------|4-------|---------|
                                                                     ^ fast fill, more obvious in 
                                                                       the post-chorus
Verse:
|--------|--------|--------|--------|--------|--------|--------|--------|
|----0-20|----0-20|--2-0---|2-4-2-0-|----0-20|----0-20|--2-0---|2-4-2-0-|
|2-4-----|2-4-----|------4-|--------|2-4-----|2-4-----|------4-|--------|
|--------|--------|4-------|--------|--------|--------|4-------|--------|

|--------|--------|--------|--------|--------|--------|--------|--------|
|--------|--------|7-7-7-7-|7-------|----0-20|----0-20|--2-0---|2-4-20--|
|--------|----7070|--------|--------|2-4-----|2-4-----|------4-|------0-|
|2-2-2-2-|2-2-----|--------|--------|--------|--------|4-------|--------|

Pre-chorus:
|--------|--------|--------|--------|--------|--------|--------|------------|
|--------|--------|--------|--------|--------|--------|--------|------------|
|--------|--------|--------|0-------|--------|----0---|----0---|------------|
|2-------|--------|0-------|--------|2---4---|5-------|0-------|4444444-----|

Chorus:
|--------|--------|--------|--------|
|--------|--------|--------|--------|
|--------|--------|--------|--------| x 2 (second time- slide the first note)
|9-------|--------|5-------|2---4---|

|--------|--------|--------|--------|--------|---------|--------|--------|
|----4---|5-4-5---|--------|--------|----4-5-|554-5-54-|--------|--------|
|--5---5-|-----5--|--------|--------|--5-----|---------|0-0-0-0-|1-------|
|5-------|--------|22--22--|22--22--|55------|---------|--------|--------|

Post-chorus:
(same as intro)
|--------|--------|--------|--------|--------|--------|--------|---------|
|----0-20|----0-20|--2-0---|--2-4---|----0-20|----0-20|--2-0---|0---420--|
|2-4-----|2-4-----|------4-|------4-|2-4-----|2-4-----|------4-|--4----4-|
|--------|--------|4-------|4-------|--------|--------|4-------|---------|
                                                                    
Verse:
|--------|--------|--------|--------|--------|--------|--------|--------|
|----0-20|----0-20|--2-0---|2-4-2-0-|----0-20|----0-20|--2-0---|2-4-2-0-|
|2-4-----|2-4-----|------4-|--------|2-4-----|2-4-----|------4-|--------|
|--------|--------|4-------|--------|--------|--------|4-------|--------|

|--------|--------|--------|--------|
|--------|--------|7-7-7-7-|7-------|
|--------|----7070|--------|--------|
|2-2-2-2-|2-2-----|--------|--------|

Pre-chorus:
|--------|--------|--------|--------|--------|--------|--------|------------|
|--------|--------|--------|--------|--------|--------|--------|------------|
|--------|--------|--------|0-------|--------|----0---|----0---|------------|
|2-------|--------|0-------|--------|2---4---|5-------|0-------|4444444-----|

Chorus:
|--------|--------|--------|--------|
|--------|--------|--------|--------|
|--------|--------|--------|--------| x 2 
|9-------|--------|5-------|2---4---|

|--------|--------|--------|--------|--------|---------|--------|---------|
|----4---|5-4-5---|--------|--------|----4-5-|554-5-54-|--------|----0----|
|--5---5-|-----5--|--------|--------|--5-----|---------|0-0---0-|1-1---11-|
|5-------|--------|22--22--|22--22--|55------|---------|----22--|---------|

"Yeah, yeah you're asking for it!"
|--------|--------|--------|--------|--------|--------|---------|--------|
|--------|--------|--------|--------|--------|--------|---------|--------|
|--------|--------|--------|--------|5-5-----|--------|0-0------|--------| x2
|2-2-----|--------|5-5-----|--------|--------|--------|---------|--------|

Solo:
(LISTEN! SOMETIMES YOU CAN HEAR THE BASS PLAYING BETWEEN THE GUITAR RESTS, I HAVE HIGHLIGHTED
THE PARTS OF THE TAB SHOWING THIS)
|--------|--------|--------|--------|--------|--------|
|--------|--------|--------|--------|--------|--------|
|2-2-2-22|1-1-1-1-|--------|--------|--------|--------|
|--------|-----2-2|7-7-7975|6-6-6-6-|5-5-5-5-|5-5-57--|
       ^^     ^^^^     ^^^^

|--------|--------|--------|--------|--------|--------|
|--------|--------|--------|--------|--------|--------|
|2-2-2-2-|1-1-----|--------|--------|--------|--------|
|---2-2-2|----4-6-|7-7-7-7-|6-6-6-6-|5-5-5-5-|5-5-57--|
   ^^^^^^     ^^^

Solo part 2:
|-------|--------|--------|---------|
|----0-2|4-5-4-0-|----0-2-|---------|
|2-4----|--------|--2-----|---------| x2
|-------|-------5|-------2|--2-4--4-|

"Yeah, yeah well you're just a mess!"
|--------|--------|--------|--------|--------|--------|---------|--------|
|--------|--------|--------|--------|--------|--------|---------|--------|
|--------|--------|--------|--------|5-5-----|--------|0-0------|--------| 
|2-2-----|--------|5-5-----|--------|--------|--------|---------|--------|

Chorus:
|--------|--------|--------|--------|
|--------|--------|--------|--------|
|--------|--------|--------|--------| x 2 
|9-------|--------|5-------|2---4---|

|--------|--------|--------|--------|
|----4---|5-4-5---|--------|--------|
|--5---5-|-----5--|--------|--------| play this bit a few times
|5-------|--------|22--22--|22--22--|

Outro:
|--------|--------|--------|--------|--------|--------|--------|---------|
|----0-20|----0-20|--2-0---|--2-4---|----0-20|----0-20|--2-0---|0---4204-|
|2-4-----|2-4-----|------4-|------4-|2-4-----|2-4-----|------4-|--4------|
|--------|--------|4-------|4-------|--------|--------|4-------|---------|

There we have it. The CORRECT way to play fences.
            
Submit corrections



        Fences lessons Hard to play? Try these video lessons and learn fast Fences lessons
        
↑ Back to top | Tablatures and chords for acoustic guitar and electric guitar, ukulele, drums are parodies/interpretations of the original songs. You may use it for private study, scholarship, research or language learning purposes only