Home » P » Paramore »

Paramore - 26 Tabs

Artists:  A B C D E F G H I J K L M N O P Q R S T U V W X Y Z # 

26 Tabs

(ver. 1) Click to play this song!
Paramore
Intro
Acoustic Guitar [0:00]
e|----------------------------------------------------------------------------|
B|------7-----7--------7------------3-----3--------3--------------------------|
G|---0-----0-------0-------0-----0-----0-------0-------0----------------------|x2
D|------7-----7------7-------7\-----4-----4------4-------4/-------------------|
A|---5-----5-----5-------5-------------------2-------2------------------------|
E|-------------------------------3-----3--------------------------------------|
                *Fingerpicked acoustic

Verse 1
Acoustic Guitar [0:10]
e|----------------------------------------------------------------------------|
B|------7-----7--------7------------3-----3--------3--------------------------|
G|---0-----0-------0-------0-----0-----0-------0-------0----------------------|x4
D|------7-----7------7-------7\-----4-----4------4-------4/-------------------|
A|---5-----5-----5-------5-------------------2-------2------------------------|
E|-------------------------------3-----3--------------------------------------|


Pre-Chorus 1
Acoustic Guitar [0:32]
e|----------------------------------------------------------------------------|
B|------5-----5--------5------------3-----3--------3--------------------------|
G|---0-----0-------0-------0-----0-----0-------0-------0----------------------|
D|------7-----7------7-------7\-----4-----4------4-------4/-------------------|
A|---4-----4-----4-------4----------------------------------------------------|
E|-------------------------------3-----3-----3-------3------------------------|

Acoustic Guitar [0:37]
e|----------------------------------------------------------------------------|
B|------5-----5--------5------------3-----3-----3-----3-----------------------|
G|---0-----0-------0-------0-----0-----0-----0-----0--------------------------|
D|------7-----7------7-------7\-----4-----4-----4-----4-----------------------|
A|---4-----4-----4-------4----------------------------------------------------|
E|-------------------------------3-----3-----3-----3--------------------------|

Acoustic Guitar [0:42]
e|----------------------------------------------------------------------------|
B|------3-----3-----3-----3-----3-----3-----3-----3---------------------------|
G|---0-----0-----0-----0-----0-----0-----0-----0-----0------------------------|
D|------4-----4-----4-----4-----4-----4-----4-----4---------------------------|
A|---------------2-----0------------------------------------------------------|
E|---3-----3-----------------0-----0-----0-----0-----0------------------------|


Chorus 1
Acoustic Guitar [0:50]
e|----------------------------------------------------------------------------|
B|------12----12-------12-----------10----10-------10-------------------------|
G|---11----11------11------11----11----11------11------11---------------------|x3
D|------12----12-----12------12-----11----11-----11------11-------------------|
A|---10----10----10------10------0-----0-----0-------0------------------------|
E|----------------------------------------------------------------------------|

Electric Guitar [0:50]
e|----------------------------------------------------------------------------|
B|------15--------------------------15----------------------------------------|
G|---------------14--------------------------14-------------------------------|x3
D|---16----16-17----17-16-----16-16----16-17----16-17-------------------------|
A|----------------------------------------------------------------------------|
E|----------------------------------------------------------------------------|

Acoustic Guitar [1:06]
e|----------------------------------------------------------------------------|
B|------12----12-------12-----------10----10--10------------------------------|
G|---11----11------11------11----11----11-----11------------------------------|
D|------12----12-----12------12-----11----11--11------------------------------|
A|---10----10----10------10------0-----0------0-------------------------------|
E|----------------------------------------------------------------------------|

Electric Guitar [1:06]
e|----------------------------------------------------------------------------|
B|------15--------------------------15----------------------------------------|
G|---------------14---------------------------14------------------------------|
D|---16----16-17----17-16-----16-16----16-17----------------------------------|
A|----------------------------------------------------------------------------|
E|----------------------------------------------------------------------------|


Verse 2
Acoustic Guitar [1:12]
e|----------------------------------------------------------------------------|
B|------7-----7--------7------------3-----3--------3--------------------------|
G|---0-----0-------0-------0-----0-----0-------0-------0----------------------|x4
D|------7-----7------7-------7\-----4-----4------4-------4/-------------------|
A|---5-----5-----5-------5-------------------2-------2------------------------|
E|-------------------------------3-----3--------------------------------------|

Electric Guitar [1:12]
e|----------------------------------------------------------------------------------------------14-----|
B|---------15----------15----------14-15-------15----------15----------15----------14-15----------15---|
G|------14----14----14----14----14----------14----14----14----14----14----14----14-----------14--------|x2
D|---16----------16----------16----------16----------16----------16----------16-----------16-----------|
A|-----------------------------------------------------------------------------------------------------|
E|-----------------------------------------------------------------------------------------------------|


Pre-Chorus 1
Acoustic Guitar [1:33]
e|----------------------------------------------------------------------------|
B|------5-----5--------5------------3-----3--------3--------------------------|
G|---0-----0-------0-------0-----0-----0-------0-------0----------------------|
D|------7-----7------7-------7\-----4-----4------4-------4/-------------------|
A|---4-----4-----4-------4----------------------------------------------------|
E|-------------------------------3-----3-----3-------3------------------------|

Electric Guitar [1:33]
e|----------------------------------------------------------------------------|
B|---------14----------14----------15----------15-----------------------------|
G|------14----14----14----14----14----14----14----14--------------------------|
D|---14----------14----------16----------16-----------------------------------|
A|----------------------------------------------------------------------------|
E|----------------------------------------------------------------------------|

Acoustic Guitar [1:38]
e|----------------------------------------------------------------------------|
B|------5-----5--------5------------3-----3-----3-----3-----------------------|
G|---0-----0-------0-------0-----0-----0-----0-----0--------------------------|
D|------7-----7------7-------7\-----4-----4-----4-----4-----------------------|
A|---4-----4-----4-------4----------------------------------------------------|
E|-------------------------------3-----3-----3-----3--------------------------|

Electric Guitar [1:38]
e|----------------------------------------------------------------------------|
B|---------14----------14----------15----------15-----------------------------|
G|------14----14----14----14----14----14----14----14--------------------------|
D|---14----------14----------16----------16-----------------------------------|
A|----------------------------------------------------------------------------|
E|----------------------------------------------------------------------------|

Acoustic Guitar [1:44]
e|----------------------------------------------------------------------------|
B|------3-----3-----3-----3-----3-----3-----3-----3---------------------------|
G|---0-----0-----0-----0-----0-----0-----0-----0-----0------------------------|
D|------4-----4-----4-----4-----4-----4-----4-----4---------------------------|
A|---------------2-----0------------------------------------------------------|
E|---3-----3-----------------0-----0-----0-----0-----0------------------------|

Electric Guitar [1:44]
e|------------14--------------------------------------------------------------|
B|---------15-------15----15--------------------------------------------------|
G|------14--------------------------------------------------------------------|
D|---16----------16----14----14-----------------------------------------------|
A|----------------------------------------------------------------------------|
E|----------------------------------------------------------------------------|


Chorus 2
Acoustic Guitar [1:52]
e|----------------------------------------------------------------------------|
B|------12----12-------12-----------10----10-------10-------------------------|
G|---11----11------11------11----11----11------11------11---------------------|x3
D|------12----12-----12------12-----11----11-----11------11-------------------|
A|---10----10----10------10------0-----0-----0-------0------------------------|
E|----------------------------------------------------------------------------|

Electric Guitar [1:52]
e|----------------------------------------------------------------------------|
B|------15--------------------------15----------------------------------------|
G|---------------14--------------------------14-------------------------------|x3
D|---16----16-17----17-16-----16-16----16-17----16-17-------------------------|
A|----------------------------------------------------------------------------|
E|----------------------------------------------------------------------------|

Acoustic Guitar [1:06]
e|----------------------------------------------------------------------------|
B|------12----12-------12-----------10----10--10------------------------------|
G|---11----11------11------11----11----11-----11------------------------------|
D|------12----12-----12------12-----11----11--11------------------------------|
A|---10----10----10------10------0-----0------0-------------------------------|
E|----------------------------------------------------------------------------|

Electric Guitar [1:06]
e|----------------------------------------------------------------------------|
B|------15--------------------------15----------------------------------------|
G|---------------14---------------------------14------------------------------|
D|---16----16-17----17-16-----16-16----16-17----------------------------------|
A|----------------------------------------------------------------------------|


Bridge
12 String Acoustic Guitar [2:13]
e|----------------------------------------------------------------------------|
B|------3-----3--------3------------2-----2------2----------------------------|
G|---0-----0-------0-------0-----2-----2-----------2-----2--------------------|x3
D|------4-----4------4-------4------2-----2----2-------2----------------------|
A|-------------------------------0-----0-----0-------0------------------------|
E|---0-----0-----0-------0----------------------------------------------------|

Electric Guitar [2:13]
e|----------------------------------------------------------------------------|
B|---8-----8------------------------------------------------------------------|
G|------11----11-----------------7-----6--------------------------------------|x3
D|----------------------------------9-----9-----------------------------------|
A|----------------------------------------------------------------------------|
E|----------------------------------------------------------------------------|

12 String Acoustic Guitar [2:29]
e|----------------------------------------------------------------------------|
B|------3-----3--------3------------2-----2-----2-----2-----2-----2-----------|
G|---0-----0-------0-------0-----2-----2-----2-----2-----2-----2-----2--------|
D|------4-----4------4-------4------2-----2-----2-----2-----2-----2-----------|
A|-------------------------------0-----0-----0-----0-----0-----0-----0--------|
E|---0-----0-----0-------0----------------------------------------------------|

Electric Guitar [2:29]
e|----------------------------------------------------------------------------|
B|---8-----8---------------------7-----7-----5-----5-----7-----7\----5--------|
G|------11----11--------------------7-----7-----6-----6-----7-----------------|
D|----------------------------------------------------------------------------|
A|----------------------------------------------------------------------------|
E|----------------------------------------------------------------------------|

Acoustic Chorus (Half Chorus)
Acoustic Guitar [2:38]
e|------0-----0---------------------0-----0-----------------------------------|
B|---------------------12--------14----14-----------7-------------------------|
G|---11----11------11------11-------------------6-------6---------------------|
D|------12----12-----12------12--0-----0----------7-------7-------------------|
A|---10----10----10------10---------12----12--0-------0-----------------------|
E|----------------------------------------------------------------------------|
*track is doubled with a regular 6 string in the mix

Acoustic Guitar [2:44]
e|---3-----5------------------------------------------------------------------|
B|------3-----3//10---10------------10----10----10----------------------------|
G|-------------------------7----------------------9---------------------------|
D|------0-----0--------------0------11----11--------11------------------------|
A|------------------9------------0-----0------0-------------------------------|
E|---3-----3------------------------------------------------------------------|


Chorus 3
Acoustic Guitar [2:49]
e|----------------------------------------------------------------------------|
B|------12----12-------12-----------10----10-------10-------------------------|
G|---11----11------11------11----11----11------11------11---------------------|x3
D|------12----12-----12------12-----11----11-----11------11-------------------|
A|---10----10----10------10------0-----0-----0-------0------------------------|
E|----------------------------------------------------------------------------|

Electric Guitar [2:49]
e|----------------------------------------------------------------------------|
B|------15--------------------------15----------------------------------------|
G|---------------14--------------------------14-------------------------------|x3
D|---16----16-17----17-16-----16-16----16-17----16-17-------------------------|
A|----------------------------------------------------------------------------|
E|----------------------------------------------------------------------------|

Acoustic Guitar [3:05]
e|----------------------------------------------------------------------------|
B|------12----12-------12-----------10----10--10------------------------------|
G|---11----11------11------11----11----11-----11------------------------------|
D|------12----12-----12------12-----11----11--11------------------------------|
A|---10----10----10------10------0-----0------0-------------------------------|
E|----------------------------------------------------------------------------|

Electric Guitar [3:05]
e|----------------------------------------------------------------------------|
B|------15--------------------------15----------------------------------------|
G|---------------14---------------------------14------------------------------|
D|---16----16-17----17-16-----16-16----16-17----------------------------------|
A|----------------------------------------------------------------------------|
E|----------------------------------------------------------------------------|

Outro
12 String Acoustic Guitar [3:12]
e|-----------------------------------------------------------------------------------------------------|
B|------3-----3-----3-----3-----3-----3-----3-----3-----3-----3-----3-----3-----3------3-----3-----3---|
G|---0-----0-----0-----0-----0-----0-----0-----0-----0-----0-----0-----0-----0----0------0-----0-----0-|
D|------4-----4-----4-----4-----4-----4-----4-----4-----4-----4-----4-----4-----4------4-----4---------|
A|---2-----0-----------------------------------------2-----0-------------------------------------------|
E|---------------0-----0-----0-----0-----0-----0-----------------0-----0-----0------0------0-----0-----|
 
12 String Acoustic Guitar [3:22]
e|----------------------------------------------------------------------------|
B|------3-----3-----3-----3------3-----3-----3-----3----3-----3--------3------|
G|---0-----0-----0-----0-----0-----------------------0-----0---------0--------|
D|------4-----4-----4-----4----4-----4-----4-----4------4-----4----4----------|
A|---2-----0-----------------------------------------2-----0------------------|
E|---------------0-----0-----0-----0-----------------------------0------------|
 

26 Lyrics
Lyrics from YouTube (https://www.youtube.com/watch?v=8Ju7T4J1qbc)
LYRICS

(Verse 1)
Man, you really know how to get someone down
Everything was fine, until you came around

(Pre-Chorus 1)
And I've been chasing after dreamers in the clouds
After all wasn't I the one who said
To keep your feet on the ground
Man, you really brought me back down

(Chorus 1)
Hold onto hope if you got it
Don't let it go for nobody
And they say that dreaming is free
But I wouldn't care what it cost me

(Verse 2)
You got me tied up but I stay close to the window
And I talk to myself about the places that I used to go

(Pre-Chorus 2)
And hope that someday that I just float away
And forget every cynical thing you said
When you gonna hear me out
Man, you really bring me down

(Chorus 2)
Hold onto hope if you got it
Don't let it go for nobody
And they say that dreaming is free
But I wouldn't care what it cost me

(Bridge)
Reality will break your heart
Survival will not be the hardest part
It's keeping all your hopes alive
When all the rest of you has died
So let it break your heart

(Chorus 3) 
And hold onto hope if you got it
Don't let it go for nobody

Hold onto hope if you got it
Don't let it go for nobody
And they say dreaming is free
But I wouldn't care what it cost me            
Submit corrections

↑ Back to top | Tablatures and chords for acoustic guitar and electric guitar, ukulele, drums are parodies/interpretations of the original songs. You may use it for private study, scholarship, research or language learning purposes only