» » »

Palma Violets - Danger In The Club Tabs

Artists:  A B C D E F G H I J K L M N O P Q R S T U V W X Y Z # 

Danger In The Club Tabs

(ver. 2) Click to play this song!
Palma Violets
 Rating:
4/5 (20 votes)

 Danger In The Club  lessons Tabs too difficult? Try these video lessons and learn fast
 
                Intro

e|---2---2---------------2---2-----------------|X2
B|-3---3----3/5-3---3--3---3---3/5-------------|
G|----------------2----------------2~----------|
D|---------------------------------------------|
A|---------------------------------------------|
E|---------------------------------------------|

e|-2---0-5-(55555)-2---0---------------------------------------------------|
B|---3---------------3-----------------------------------------------------|
G|-----------------------2-2-2-2-2-2-2-2-2---------------------------------|
D|-------------------------------------------------------------------------|
A|-------------------------------------------------------------------------|
E|-------------------------------------------------------------------------|

e|-------------------------------------------------------------------------|
B|-------------------------------------------------------------------------|
G|-2-0-2-0-2-5-2-0-2---------2-0-2-0-2-0-2-0-2-----------------------------|
D|-------------------2-------------------------2---------------------------|
A|-------------------------------------------------------------------------|
E|---------------------5-3~-----------------------5-3~---------------------|


D          C          F      C
When in my life was I such a man?
I dread the sound of a distant screaming
In all the days that I've loved you for


D      C     A   G   F 
Have I ever need you more?
D   C     F   C     D   C     F   C
You what, You what, You what, You what
    A                      
But he's the danger in the club
                           A G F E 
He's the danger in the club


D          C          F      C
Where were you when I needed you
Honey Paiber and a p**sed up slapper
All the big boys ran the door
And all the big girls needed you more



D   C     F   C     D   C     F   C
You what, You what, You what, You what
    A                      
But he's the danger in the club
                        
He's the danger in the club



D F G (x4)
No no no, Don't jump
To conclusions

E
Fight



D   C    F   C    D   C    F   C
I'll knock you black and blue boy
Maybe if you joust hold my damn hand then everthing will be ok


A                     Am
He's bad to the bone, He's bad to the bone,
A                     Am  
He's bad to the bone, He's bad to the bone,
A                     Am
He's bad to the bone, He's bad to the bone,
A                     Am
He's bad to the bone, He's bad to the bone, he's bad...


e|-----------------------------------------------------------------------|X2
B|-----------------------------------------------------------------------|
G|-----------------------------------------------------------------------|
D|-----------------------------------------------------------------------|
A|--8-7-5--7-5---5--------------8-7-5-7-5---5----------------------------|
E|-------------8---8-5-8-(8888)-----------8---555~-----------------------|


D   C    F   C    D   C    F   C
You Are, You Are, You Are, You Are
D
We can go outside
G
I think it's stopped raining.

C G F


e|-----1-0-----3-0---------1-0-----3-0--------------1-0-----3-0----------|
B|-----------------------------------------------------------------------|
G|---2-------------------2------------------------2----------------------|
D|-0-------------------0------------------------0------------------------|
A|-----------2-----3~------------2-----3-2-3-2------------2-----3~3~-----|
E|----------3-------------------3------------------------3---------------|

e|-----1-0-----3-0-----0----------|
B|---------------------1----------|
G|---2-----------------0----------|
D|-0-------------------2----------|
A|-----------2-----3-2-3----------|
E|----------3---------------------|            
Submit corrections


        Danger In The Club  lessons Hard to play? Try these video lessons and learn fast Danger In The Club  lessons
        
↑ Back to top | Tablatures and chords for acoustic guitar and electric guitar, ukulele, drums are parodies/interpretations of the original songs. You may use it for private study, scholarship, research or language learning purposes only