» » »

Palace - Veins Tabs

Artists:  A B C D E F G H I J K L M N O P Q R S T U V W X Y Z # 

Veins Tabs

(ver. 1) Click to play this song!
Palace
 Rating:
4.4/5 (17 votes)

 Veins  lessons Tabs too difficult? Try these video lessons and learn fast
 
                [Intro]
e|---------------------------------------------------------------|
B|-1----1----1------------0--------------------------------------|
G|-0----0h2--0----2/4---0---0---0--------------------------------|
D|-0h2--0----0h2--0/0---0-----4----0-0-----0---0-0-----0---------|
A|-3----3----3----3/5---------5----2-2-0h2-----2-2-0h2-----------|
E|---------------------------------3-3---------3-3---------------|

e|---------------------------------------------------------------|
B|---------------------------------------------------------------|
G|-----0-----------0-----------0---------------------------------|
D|-3-3---3-----3-3---3-----2-2---2-----0-0-----0---0-0-----0-----| x2
A|-2-2-----2---2-2-----2---0-0-----0---2-2-0h2-----2-2-0h2-------|
E|-3-3---------3-3---------------------3-3---------3-3-----------|

[Verse]
  (G)            (?)            (C)            (G)
e|-3-----------------------------0--------------3----------------|
B|-3--------------3--------------1--------------3----------------|
G|-4--------------0--------------0--------------4----------------|
D|-5-x8-----------3-x8-----------2-x8-----------5-x8-------------| x4
A|-5--------------2--------------3--------------5----------------|
E|-3--------------3-----------------------------3----------------|

[Chorus]
  (C)            (G)             (Bm)          (F)
e|-0--------------3---------------2-------------1----------------|
B|-1--------------3---------------3-------------1----------------|
G|-0--------------4---------------4-------------2----------------|
D|-2-x8-----------5-x8---(x2)-----4-x8----------3-x8-------------|
A|-3--------------5---------------2-------------3----------------|
E|----------------5---------------2-------------1----------------|

N.C.
[Solo and verse]
  (G)            (?)            (C)            (G)
e|-3-----------------------------0--------------3----------------|
B|-3--------------3--------------1--------------3----------------|
G|-4--------------0--------------0--------------4----------------|
D|-5-x8-----------3-x8-----------2-x8-----------5-x8-------------| x4
A|-5--------------2--------------3--------------5----------------|
E|-3--------------3-----------------------------3----------------|

[Chorus]
  (C)            (G)             (Bm)          (F)
e|-0--------------3---------------2-------------1----------------|
B|-1--------------3---------------3-------------1----------------|
G|-0--------------4---------------4-------------2----------------|
D|-2-x8-----------5-x8---(x2)-----4-x8----------3-x8-------------|
A|-3--------------5---------------2-------------3----------------|
E|----------------5---------------2-------------1----------------|

[Solo]
  (G)            (?)            (C)            (G)
e|-3-----------------------------0--------------3----------------|
B|-3--------------3--------------1--------------3----------------|
G|-4--------------0--------------0--------------4----------------|
D|-5-x8-----------3-x8-----------2-x8-----------5-x8-------------| x2
A|-5--------------2--------------3--------------5----------------|
E|-3--------------3-----------------------------3----------------|

[Outro]
e|---------------------------------------------------------------|
B|--------------------------------1----------1-------------------|
G|-------0------------0-------0-0---0----0-0---0-----------------|
D|---------0------------0-----2-2-----2--2-2-----2---------------|
A|---2-------2----2-------0---3-3--------3-3---------------------|
E|-3---3--------3---3--------------------------------------------|

e|--------------------3------------------------------------------|
B|--------------------3------------------------------------------|
G|--------------------4------------------------------------------|
D|--------------------5------------------------------------------|
A|-2-222-22-222-------5------------------------------------------|
E|-3-333-33-333-------3------------------------------------------|            
Submit corrections


        Veins  lessons Hard to play? Try these video lessons and learn fast Veins  lessons
        
↑ Back to top | Tablatures and chords for acoustic guitar and electric guitar, ukulele, drums are parodies/interpretations of the original songs. You may use it for private study, scholarship, research or language learning purposes only