Home » O » Ozzy Osbourne »

Ozzy Osbourne - Shot In The Dark Tabs

Artists:  A B C D E F G H I J K L M N O P Q R S T U V W X Y Z # 

Shot In The Dark Tabs

(ver. 1) Click to play this song!
Ozzy Osbourne
 Rating:
3.4/5 (5 votes)
                |----------------------|----------------------|----------------------|
|----------------------|----------------------|----------------------|
|-7--------6-----------|-7--------6-----------|-7--------6---2--0--4-|
|-7--------7-----------|-7--------7-----------|-5--------5---2--0--5-|
|----0--0------------0-|----0--0------0-----0-|----0--0--------------|
|--------------0--3----|-----------------3----|----------------------|


|------------------|----------------------|---------------------|
|------------------|-7--------6-----------|-7-------6-----------|
|----------------0-|-7--------7-----------|-7-------7-----------|
|-5--------0--2----|----0--0------0-----0-|----0-0------------0-|
|----5--0----------|-----------------3----|-------------0--3----|


|----------------------|----------------|
|----------------------|-3--3--3--2-----|
|-7--------6---2--0--4-|--------------2-|
|-5--------5---2--0--5-|----------------|
|----0--0--------------|----------------|
|----------------------|----------------|


|--------------2-|-0--------------------|------------0-|-------------------|
|-3--3--5--2---2-|-0--3--3--2-----------|------------0-|-3--3--3--2--------|
|--------------4-|-0------------2--2----|-4---2--4---0-|-4------------2--2-|
|----------------|--------------------4-|--------------|-4-----------------|
|----------------|----------------------|--------------|-------------------|
|----------------|----------------------|--------------|-------------------|


|-------------------|--------------2-|-0--------------------|
|-3--3--3--2--------|-3--3--5--2---2-|-0--3--3--2-----------|
|-4------------2--2-|--------------4-|-0------------2--2----|
|-4-----------------|----------------|--------------------4-|
|-------------------|----------------|----------------------|
|-------------------|----------------|----------------------|




|-------0-|-2--3--2-----------------|-2--3--2--2--0----|
|-------0-|-0--------5--0--0--0---3-|----------------3-|
|-4--4--0-|-0-----------------------|----------------0-|
|---------|-------------------------|----------------0-|
|---------|-------------------------|------------------|
|---------|-------------------------|------------------|


|----2--0--0----------|----2--0--0----------|-2--3--2--------------|
|-3-----------3--3--3-|-3-----------3--3--3-|-0--------5--0--0---3-|
|-4-----------------2-|-4-----------------2-|-0--------------------|
|-4-----------------4-|-4-----------------4-|----------------------|
|---------------------|---------------------|----------------------|
|---------------------|---------------------|----------------------|


|-2--3--2--0-----|-2---2--2--2--0----|-2--0-----------|
|--------------3-|-----------------3-|--------3-------|
|----------------|-------------------|----------------|
|----------------|-------------------|-----------4--4-|
|----------------|-------------------|----------------|
|----------------|-------------------|----------------|


|----------2---3--2--0-|---------------|-3--2-----------|
|----2--3--------------|-5--3-----3--2-|--------3--3--3-|
|-4--------------------|-2--------2----|----------------|
|----------------------|---------------|----------------|
|----------------------|-------0-------|----------------|
|----------------------|---------------|----------------|


|-0--0--------|----------2---3--2--0-|-----------------------|
|-------------|---2--3---------------|-5--3--5--5/7-----5--3-|
|-------------|-4--------------------|-2-----2--2/4-----2--2-|
|--------4--4-|----------------------|-----------------------|
|-------------|----------------------|---------------0-------|
|-------------|----------------------|-----------------------|


|-3---3--5---2--2--2-|-0--0-|-0-|
|--------------------|------|-1-|
|--------------------|------|-0-|
|--------------------|------|---|
|--------------------|------|---|
|--------------------|------|---|


|-0--0--------|----------2---3--2--0-|----------------2-|
|-------------|----2--3--------------|-7-----5-----3--0-|
|-------------|-4--------------------|-4-----2-----2----|
|--------4--4-|----------------------|------------------|
|-------------|----------------------|----0-----0-------|
|-------------|----------------------|------------------|


|-3--3--2--------2-|-0--0-|-0--------------|
|----------3--3----|------|-1--------------|
|------------------|------|-0--------------|
|------------------|------|----------------|
|------------------|------|----------------|
|------------------|------|-----6--6--6--6-|


|---------|-------------------------|-----|------------------------|
|-5/7-----|-10--7--------8--7-------|-7/5-|-8--5--------7--5-------|
|-5/7---7-|--------7-----------7----|-7/5-|-------5-----------5----|
|-5/7-----|-----------7-----------7-|-7/5-|----------5-----------5-|
|---------|-------------------------|-----|------------------------|
|---------|-------------------------|-----|------------------------|
            
Submit corrections

↑ Back to top | Tablatures and chords for acoustic guitar and electric guitar, ukulele, drums are parodies/interpretations of the original songs. You may use it for private study, scholarship, research or language learning purposes only