» » »

Ozzy Osbourne - See You On The Other Side Tabs

Artists:  A B C D E F G H I J K L M N O P Q R S T U V W X Y Z # 

See You On The Other Side Tabs

(ver. 1) Click to play this song!
Ozzy Osbourne
 Rating:
4/5 (4 votes)


 See You On The Other Side lessons Tabs too difficult? Try these video lessons and learn fast
 
                Ozzy - Ozzmosis

Standard

|-0-------|-------------------------|-------------------------|
|---3-----|-------------------------|-------------------------|
|-----0---|-------------------0-----|-------------------0-----|
|-------4-|---0---2-----4-------4---|---0---2-----4-------4---|
|---------|-----2---2-----2-------2-|-----2---2-----2-------2-|
|---------|-3---------3-----3-------|-3---------3-----3-------|

|-------------------------|---------------------------|
|-------------------------|---------------------------|
|-------------------0-----|-------------------0-------|
|---0---2-----4-----------|---0---2-----4-------0-----|
|-----2---2-----2-----0-2-|-3---3---3-3---3-3-----0---|
|-0---------0-----0-------|---------------------------|

"I cant seem to see you baby..."
                  1)=================|2)====================|
|------3-------3--|-----3------------||---------------------|
|-3----3-------3--|---3----3-3-------||---------------------|
|-2----0-------0--|------------0-0---||---------------------|
|-0----2-------0--|------------------||-3/5-----5-----5--3--|
|-0----3-------2--|------------------||-3/5-----5-----5--3--|
|--------------3--|------------------||-1/3-3-3-3-3-3-3--1--|


"Yes ill see you, see you on the other side..."
|----------------------|-----0---0---0---|
|----------------------|-----3---3---3---|
|-2-------4--5---------|-----0---0---0---|
|-2-----x-4--5-------0-|-2---------------|
|-0-----x-2--3-------0-|-2---------------|
|----------------------|-0---------------|

SOLO:
|-------------------------|---------------------------------|
|-------------------------|---------------------------------|
|-------------------------|-------12~-----------------------|
|----------------12-12----|-12h14------------------12-------|
|-------10-12/14-------14-|------------------12h14----14----|
|-10h12-------------------|---------------------------------|

|---------------15-------------|------------------------------|
|---------------15-------------|------------------------------|
|-------12~-----14^---14^-^p12-|-14~~--14^-^p12~~--------12-x-|
|-12h14------------------------|-------------------12-14------|
|------------------------------|------------------------------|
|------------------------------|------------------------------|

|---------------------------|---------------------------------|
|-15^---15^~~---------------|---------------------------------|
|---------------14^-^p12----|-14^-^-^-^-^-^-^-^-^-^-^-^p12----|
|------------------------14-|------------------------------14-|
|---------------------------|---bend up and down--------------|
|---------------------------|---------------------------------|

|-15-12-----------------------------------------------------|
|-------15-12-----------------------------------------------|
|-------------14--------------------------------------------|
|----------------14-14p12-----------------------------------|
|-------------------------14-14p12\10----------10-----------|
|-------------------------------------12-10h12----12--------|

|----------------------------------------------17^-^p15-----|
|-------------------------------------------15----------17--|
|----------------------------------12---14^-----------------|
|----------------------12----12h14----x---------------------|
|-------10-------12/14----14--------------------------------|
|-10h12----12/14--------------------------------------------|

|-17--17^--15~~--------15-|/20---19--19\17--17^^^-|
|----------------15h17----|-----------------------|
|-------------------------|-----------------------|
|-------------------------|-----------------------|
|-------------------------|-----------------------|
|-------------------------|-----------------------|

|--------15-----------------------|
|-18^-------18--------------------|
|--------------17^-17p15-0~~0~~---|
|------------------------17-------|
|---------------------------------|
|---------------------------------|

"Never though Id feel like this..."
|------------------|-------3-------|--------------------|
|-----3--------3---|---------3-----|-----3---------3----|
|-------0----0---0-|-----------0---|-------0-----0---0--|
|---2-----2--------|-----0-------0-|---2-----2----------|
|-3--------3-------|---2-----------|-3---------3--------|
|------------------|-3-------------|--------------------|

|-----------------|-------------------|-------3--------|
|-----------------|-----3---------3---|---------3------|
|-----0-----2-----|-------0-----0---0-|-----------0----|
|---0-----0---0---|---2-----2---------|-----0-------0--|
|---------------0-|-3---------3-------|---2------------|
|-3-----2---------|-------------------|-3--------------|
 
"Carved In stone...carved in stone..."
|----------------------|------------------------|
|----------------------|------------------------|
|-7---7-5--------------|-7---7-5----------------|
|-7---7-5-----4--5-----|-7---7-5-----4--5-------|
|-5---5-3-3-3-3--3-x-x-|-5---5-3-3-3-3--3-x-x---|
|----------------------|------------------------|
            
Submit corrections



        See You On The Other Side lessons Hard to play? Try these video lessons and learn fast See You On The Other Side lessons
        
↑ Back to top | Tablatures and chords for acoustic guitar and electric guitar, ukulele, drums are parodies/interpretations of the original songs. You may use it for private study, scholarship, research or language learning purposes only