Home » O » Ozzy Osbourne »

Ozzy Osbourne - My Jekyll Doesn't Hide Tabs

Artists:  A B C D E F G H I J K L M N O P Q R S T U V W X Y Z # 

My Jekyll Doesn't Hide Tabs

(ver. 1) Click to play this song!
Ozzy Osbourne
Ozzy - Ozzmosis

1 & 3
|------------------------------------------------------------------
|------------------------------------------------------------------
|------------------------------------------------------------------
|-/14-12-8-7-------------------------------------------------------
|-/12-10-6-5--3p0-----5--6--7-----5^--5~~-3------------------------
|-----------------3-0-3--4--5--0------------5----------------------
2
|------------------------------------------------------------------
|--------------------------------5-8-------------------------------
|-----------------------------7^-----7^-^-5------------------------
|-/14-12-8-7--------------------------------7----------------------
|-/12-10-6-5--3p0-----5--6--7--------------------------------------
|-----------------3-0-3--4--5--------------------------------------
4
|------------------------------------------------------------------
|------------------------------------------------------------------
|----------------------------------|\------------------------------
|-/14--9-5-4----------------------/--\-----------------------------
|-/12-10-6-5--3p0-----2--3--4----/----\----------------------------
|-----------------3-0-3--4--5--3^----------------------------------

Verse:                                          goes w/ verse
|---------------------------------------------||--------------------------
|---------------------------------------------||--------------------------
|---------------------------------------------||--------------------------
|---------------------------------------------||--------------------------
|-3-----7----6----5-----------3-----7---6---5-||-3---4/\/\/-6/\/\/-5/\/\/-
|---5-3-5----4----3---0-0-3-0---5-3-5---4---3-||--------------------------

|------------------------------------------------------------------
|------------------------------------------------------------------
|---------------------------2--------------------------------------
|---------------------------2--------------------------------------
|---------------------------0--------------------------------------
|-3^------3^--(3)p0--3--3^----------5^--^---^----------------------

Solo:
|---------------------------------R--------------------------------
|-------------10^~~~~------------------------------------10^-~~~---
|-9^-9^-9^-9^----------9^-9^-9^--7^----------9^-9^-9^-9^-----------
|------------------------------------9~~~~~------------------------
|------------------------------------------------------------------
|------------------------------------------------------------------

|----12^---------0-9-|-12-9---------------------------------------------
|--------------------|-----12-9----12-9---------------------------------
|-9^--------^9-------|---------11-9----11-9----11-9--------------9------
|--------------------|---------------------11-9----11-9----11-9--9------
|--------------------|---------------------------------11-9----11-9-7---
|--------------------|------------------------------------------------9-

|-12-9--------------------------------------------
|-----12-9----12-9------------------12^-12^--12---
|---------11-9----11-9----11-9--------------------
|---------------------11-9----11-9----------------
|---------------------------------11--------------
|-------------------------------------------------

|-9h12p9----%--%--%-12p9-14p9-12p9--9---9--------|-------------------------
|-------12------------------------12-12^-12p9--9-|--9--10--11--12--13--14--
|--------------------------------------------11--|-11^-12^-13^-14^-15^-16^-
|------------------------------------------------|-------------------------
|------------------------------------------------|-------------------------
|------------------------------------------------|-------------------------

|----------------------------------20^^^^^^^-12-12^-1212^-17-------
|-20^-^-20^-^-20^-^-20^-^20^-20-17---------------------------20^~~~
|------------------------------------------------------------------
|------------------------------------------------------------------
|------------------------------------------------------------------
|------------------------------------------------------------------

|------------------------------------------------------------------
|----20---20---20---20---------20-------------19----19-19^---------
|-19^--19^--19^--19^--19^-^-17---19^(19)p17---19-17-19-19^---17----
|------------------------------------------19-------------------19~~~~~
|------------------------------------------------------------------
|------------------------------------------------------------------

|--------------------------------------------20-17h20p17--17---------
|----17-20---17-20---17-20---17-20---17-20--------------20--20-17----
|-19^-----19^-----19^-----19^-----19^-----19---------------------19^-
|--------------------------------------------------------------------
|--------------------------------------------------------------------
|--------------------------------------------------------------------

|--------------------------20p17--20p17--20p17--20p17--20p17--20^^------
|-17-20-17-------------/17------17-----17-----17-----17-----17----------
|---------19^-19-17~~~----------------------------------------------^20-
|-----------------------------------------------------------------------
|-----------------------------------------------------------------------
|-----------------------------------------------------------------------
            
Submit corrections

↑ Back to top | Tablatures and chords for acoustic guitar and electric guitar, ukulele, drums are parodies/interpretations of the original songs. You may use it for private study, scholarship, research or language learning purposes only