» » »

Ozzy Osbourne - Desire Bass

Artists:  A B C D E F G H I J K L M N O P Q R S T U V W X Y Z # 

Desire Bass

(ver. 1) Click to play this song!
Ozzy Osbourne
 Rating:
4/5 (4 votes)


 Desire lessons Tabs too difficult? Try these video lessons and learn fast
 
                   
        Intro (x15)
F#|----|---------------|
C#|----|---------------|
G#|----|---------------|
Eb|-22-|-222--222--222-|

   Riff (x2)
F#|----------------------------|--------------------|
C#|-------2-------1h2--1h2-1---|-------2------------|
G#|-----------2----------------|-----------2--------|
Eb|-2-0-2----------------------|-2-0-2--------0-0---|

   Verse (x3)
F#|----------------------------------------------|
C#|-------------------------------2--------------|
G#|-------------------------------------2--------|
Eb|-2-2-2-2-2-2-2-2-2-2-2-2-2-2-2----------0-0---|

   Pre-chorus (x1)
F#|-----------------------------------------------------|
C#|-------2---------------------------------------------|
G#|-------------------2-----------0-----2--2--2--2--2-0-|
Eb|-2-0-2-------2-0-2-------2-0-2-----------------------|

   Chorus (x3)
F#|------------------------------------------------|
C#|------------------------------------------------|
G#|--------5--5-5-5-5-5-4-5--7-7---2--2-2-2-2-2-0--|
Eb|-2-2--0-----------------------------------------|

   Pre-solo (x7)
F#|----------------|
C#|----------------|
G#|----------------|
Eb|-0-2--0-2-------|

   Solo
F#|-------------------------------------------------------------------|---------|
C#|-------------------------------------------------------------------|-Go back-|
G#|-2-2-2-2-2-2-2-2-2-2-2-2-2-2-2-4-4-4-4-4-4-4-4-4-4-5-5-5-5-7-7-7-7-|-to riff-|
Eb|-------------------------------------------------------------------|---------|

Song order:

Intro
Riff
Verse
Pre-chorus
Chorus
Intro (but not as long)
Verse
Pre-chorus
Chorus
Pre-solo
Solo (go back to "Riff" as said in the tab)
Intro
Chorus
Intro (outro)
            
Submit corrections



        Desire lessons Hard to play? Try these video lessons and learn fast Desire lessons
        
↑ Back to top | Tablatures and chords for acoustic guitar and electric guitar, ukulele, drums are parodies/interpretations of the original songs. You may use it for private study, scholarship, research or language learning purposes only