Home » O » Ozzy »

Ozzy - Facing Hell Tabs

Artists:  A B C D E F G H I J K L M N O P Q R S T U V W X Y Z # 

Facing Hell Tabs

(ver. 1) Click to play this song!
Ozzy
MAIN RIFF (Play Twice):                   
--0-0--6-5-3-0--0-0--6-0-0----------------0-0--6-5-3-0--0-0--6-0-0-8---------
--0-0--6-5-3-0--0-0--6-0-0---/6-6-6-6-6---0-0--6-5-3-0--0-0--6-0-0-8----*NH?--
--0-0--6-5-3-0--0-0--6-0-0--sl.-----------0-0--6-5-3-0--0-0--6-0-0-8--6--6?---
                P.M    P.M                            
 P.M    P.M    
*On NH, Zakk may (probably) be playing a pinch
harmonic instead, on possibly 6 or 3??

PRE-VERSE (Play Twice)
||------------------------------------||
||------------------------------------||
||o----------------------------------o||
||o----------------------------------o||
||--0-0-0-0-0-0-0-0-0-0-0-0-0-0-0-0---||
||--0-0-0-0-0-0-0-0-0-0-0-0-0-0-0-0---||

VERSE RIFF (Play Twice)

"You make a promise of protection......"
||----------------------------------------------------||
||----------------------------------------------------||
||o--------------------------------------------------o||
||o-----------------------5-5-5-5--------------------o||
||--0-0-0-0----1-1-1-1----3-3-3-3--------sl.----------||
||--0-0-0-0----1-1-1-1-------------0-0-0-/6--5-3-5-3--||

PRE-CHORUS (Twice)
||-------------------------------------------------------------------------||
||-------------------------------------------------------------------------||
||o-----------------------------------------------------------------------o||
||o-----------------------------------5-5-5-5-5-5-5-5---------------------o||
||--0-0-0-0-0-0-0-0--1-1-1-1-1-1-1-1--3-3-3-3-3-3-3-3--0-0-0-0-0-0--*3(5)--||
||--0-0-0-0-0-0-0-0--1-1-1-1-1-1-1-1-------------------0-0-0-0-0-0---------||
      P.M---------|    P.M.--------|    P.M.--------| 
  P.M.----|    *trill

1ST CHORUS --> Play Main Riff Twice
2ND PRE-VERSE ---> Play Pre Verse Riff Twice
2ND VERSE ---> Play Verse Riff Twice
2ND CHORUS ---> Play Main Riff Twice

BRIDGE (Play 4 Times) 
||---------------------------------||
||---------------------------------||
||o-------------------------------o||
||o-------------------------------o||
||---0-0-0--6--0--6--0-0-0--5--3---||
||---0-0-0--6--0--6--0-0-0--5--3---||
     P.M.-|   P.M    P.M.-|
 
-------------------GUITAR SOLO (SORRY, NOT

POST-SOLO DIVE
-----*----------------------------------------------------------
----(0)---------------------------------------------------------
----(0)---------------------------------------------------------
*DIVE DOWN AND BACK AGAIN FROM THIS NOTE USING EITHER
HEADSTOCK BEND OR WHAMMY BAR.



3ND VERSE ---> Play Verse Riff Twice
3ND CHORUS ---> Play Main Riff Four Times w/ad lib
solo

OUTRO ---> Play Bridge 5 Times w/Fill 1 twice third
time, then end with fill 2.

FILL 1
------------------------
------------------------
------------------------
---12--10---------------
-----------11--10--8----
------------------------

FILL 2 (Ending)
---------------------------------------------------
---------------------------------------------------
---------------------------------------------------
--------------------*------------------------------
---0-0-0--6--0--6--(0)-----------------------------
---0-0-0--6--0--6--(0)-----------------------------
            
Submit corrections

↑ Back to top | Tablatures and chords for acoustic guitar and electric guitar, ukulele, drums are parodies/interpretations of the original songs. You may use it for private study, scholarship, research or language learning purposes only