Home » O » Ozma »

Ozma - Tetris Tabs

Artists:  A B C D E F G H I J K L M N O P Q R S T U V W X Y Z # 

Tetris Tabs

(ver. 1) Click to play this song!
Ozma
 Rating:
4/5 (4 votes)
                

tetris song
this is the right way to play it
its basically that whole song but there is some riffs missing

------------------------------------------------------------------------------|
------------------------------------------------------------------------------|
------------------------------------------------------------------------------|
-9-5-7-4-5-7-6---9-5-7-4-5-9-14-13--------------------------------------------|
------------------------------------------------------------------------------|
-7-3-5-2-3-5-4---7-3-5-2-3-7-12-11--------------------------------------------|
  Rhythm

------------------------------------------------------------------------------|
------------------------------------------------------------------------------|
---2---2-7-----2--------------------------------------------------------------|
-2-2-2-2-7-7-2-2--------------------------------------------------------------|
-2-0-2-0-5-7-2-0--------------------------------------------------------------|
-0---0-----5-0----------------------------------------------------------------|
    Lead

-12---------12-10----------------12-10-8-7-7-8-10-12-8------------------------|
---12-13-15-------13-12-10-10-13-----------------------10-10------------------|
------------------------------------------------------------------------------|
------------------------------------------------------------------------------|
------------------------------------------------------------------------------|
------------------------------------------------------------------------------|


-10-13-17-15-13-12-8-12-10-8-7-7-8-10-12-8------------------------------------|
-------------------------------------------10-10------------------------------|
------------------------------------------------------------------------------|
------------------------------------------------------------------------------|
------------------------------------------------------------------------------|
------------------------------------------------------------------------------|
            
Submit corrections

↑ Back to top | Tablatures and chords for acoustic guitar and electric guitar, ukulele, drums are parodies/interpretations of the original songs. You may use it for private study, scholarship, research or language learning purposes only