Home » O » Ozma »

Ozma - Battle Scars Tabs

Artists:  A B C D E F G H I J K L M N O P Q R S T U V W X Y Z # 

Battle Scars Tabs

(ver. 1) Click to play this song!
Ozma
 Rating:
4/5 (8 votes)
                #------------------------------------------------------------------------------##
Band:      OZMA

This is the beginning of the song. Try to play along with the CD so you get the idea. yeah.

Intro/Keyboard:
(Tabbed for the guitar, I'll have the notes for the keys later)
||-------------------------------------------------------------||
||-------------------------------------------------------------||
||*---------------------------------------------6-7-6---------*||
||*-------------4-5-4---------4-5-7-5-4-----4-7-------9-7-----*||
||----------2-5-------7-5---5-----------7-5---------------9-7--||
||--2-2-3-3---------------7------------------------------------||

Intro/Guitar:
(Consists of more down strokes than up srokes)
||------------------------------------------------------||
||------------------------------------------------------||
||*----------------------------------------------------*||
||*--------------4-4-2-2-2-2--4-4-7-7-7-7--4-4-2-2-2-2-*||
||--4-4-5-5-5-5--2-2-0-0-0-0--2-2-5-5-5-5--2-2-0-0-0-0--||
||--2-2-3-3-3-3-----------------------------------------||

Melody thingy:
||-------------------------------------------||
||--10-10-8-8-7-7-----------7-7-8-7----------||
||*---------------9-9-7-------------9-7-7---*||
||*---------------------9-7-----------------*||
||-------------------------------------------||
||-------------------------------------------||
            
Submit corrections

↑ Back to top | Tablatures and chords for acoustic guitar and electric guitar, ukulele, drums are parodies/interpretations of the original songs. You may use it for private study, scholarship, research or language learning purposes only