Home » O » Ozma »

Ozma - Baseball Tabs

Artists:  A B C D E F G H I J K L M N O P Q R S T U V W X Y Z # 

Baseball Tabs

(ver. 1) Click to play this song!
Ozma
 Rating:
4/5 (4 votes)
                

1/2 step tuning
Daniel Brummel already made a tab for baseball at ozmaonline.com however a solo was not transcribed so 
you go

---4---5---7-5-4h5p4h5p4h5p4h5p4h5p4h5p4-5-12-12-12-12-12-11------------------|
-0---2---4--------------------------------------------------------------------|
------------------------------------------------------------------------------|
------------------------------------------------------------------------------|
------------------------------------------------------------------------------|
------------------------------------------------------------------------------|


--------------------------------------------11-------11-----------------------|
-12-12-12----14-12h14p12--12-------12----------12-------12--------------------|
----------14-----------------11-------11----------11-------11-9---------------|
--------------------------------13-------13-----------------------------------|
------------------------------------------------------------------------------|
------------------------------------------------------------------------------|


-----------4-2----------------------------------------------------------------|
-4h5p4-2-0-----4-5-4-5-4-5-4-2-0----------------------------------------------|
------------------------------------------------------------------------------|
------------------------------------------------------------------------------|
------------------------------------------------------------------------------|
------------------------------------------------------------------------------|
 everytime i think ive finished being young riff
            
Submit corrections

↑ Back to top | Tablatures and chords for acoustic guitar and electric guitar, ukulele, drums are parodies/interpretations of the original songs. You may use it for private study, scholarship, research or language learning purposes only