» » »

Oysterhead - Little Faces Bass

Artists:  A B C D E F G H I J K L M N O P Q R S T U V W X Y Z # 

Little Faces Bass

(ver. 1) Click to play this song!
Oysterhead
 Rating:
3.8/5 (5 votes)
                #------------Created with Taborama Tab Creator-----------------#


Instrument: 4 String Bass


Tuning: Standard (E A D G)

This is my first tab so im not sure how accurate it is.
Two o's at end of staff means repeat
You also need to add different variations and tweaking of notesG|----------------|| o
D|----------------||  
A|----------------|| o
E|-x-xxxxxxx-x-xx-|| 


G|---------------------------------|| o
D|---------------------------------||  Until Chorus
A|------2-----2-----2-----2-----3--|| o
E|0-0-0---0-0---3-3---2-2---1-1----||


G|------------------------||
D|--------5---------7-----||
A|------5---------7-------||
E|1\3-3-----3/5-5---------||

                                         Repeat these until solo   
G|---------------------------------||
D|---------------------------------||
A|------2-----2-----2-----2-----3--||
E|0-0-0---0-0---3-3---2-2---1-1----||


G|----------------------------------||
D|------2-----2-----0---------------||   Repeat until next set of lyrics.
A|------------------------4-----3-2-||
E|0-0-0---0-0---0-0---0-0---0-0-----||

Repeat this in sync with lyrics/chorus

This is basically it good luck.
            
Submit corrections

↑ Back to top | Tablatures and chords for acoustic guitar and electric guitar, ukulele, drums are parodies/interpretations of the original songs. You may use it for private study, scholarship, research or language learning purposes only