Home » O » Our Lady Peace »

Our Lady Peace - Somewhere Out There Tabs

Artists:  A B C D E F G H I J K L M N O P Q R S T U V W X Y Z # 

Somewhere Out There Tabs

(ver. 1) Click to play this song!
Our Lady Peace
 Rating:
4/5 (4 votes)
                

(Suggestion: Just wanted to point this out in the Tab for Somewhere Out There....the intro riff and chrous riff should be played as octaves...same chords listed just subtract the middle note...in the video you can somewhat see the hand shape playing an octave and plus if you do you clearly get the sound needed for the specific part.  MT)


Tuning: 1/2 Step Down


Intro

Guitar 1  (Light Distortion)
E|--------------|--------------|
B|--------------|--------------|
G|--7--6--9--7-o|     ---------|
D|--7--7--7--7-o| x3  --2--5---|
A|--5--4--7--5--|     --2--5---|
E|--------------|-------0--3---|


Guitar 2  (Clean)
E|----|----|----|-------------|
B|----|----|----|-------------|
G|-7--|----|----|-------------|
D|-7--|-7--|-5--|-2--5--------|
A|-5--|-7--|-5--|-2--5--------|
E|----|-5--|-3--|-0--3--------|



Verse 1

Both Guitars
D-G-E-G  x 2   Play Each Chord For A Bar

Guitar 1
E|-------------|-------------|
B|-------------|-------------|
G|------7~-----|------7~-----|
D|----5--------|----5--------|
A|--7----------|--7----------|
E|-------------|-------------|


Guitar 2
E-G         Again, Play Each For A Bar


Verse 2
Same As Verse 1

Bass And Drums Enter

Chorus

Guitar 1  (Heavy Distortion)
E|--------------|--------------|
B|--------------|--------------|   This Might just be the the top note of the 
G|--7--6--9--7-o|     ---------|    chord for the first part. Not Sure.
D|--7--7--7--7-o| x3  --2--5---|
A|--5--4--7--5--|     --2--5---|
E|--------------|-------0--3---|

Guitar 2  (Heavy Distortion)
E|----|----|----|-------------|
B|----|----|----|-------------|
G|-7--|----|----|-------------|
D|-7--|-7--|-5--|-2--5--------|
A|-5--|-7--|-5--|-2--5--------|
E|----|-5--|-3--|-0--3--------|


Interlude
Guitar 1  (Light Distortion)
E|--------------|--------------|
B|--------------|--------------|   
G|--7--6--9--7-o|     ---------|    
D|--7--7--7--7-o| x3  --2--5---|
A|--5--4--7--5--|     --2--5---|
E|--------------|-------0--3---|

Guitar 2  (Clean, String Arr. For Guitar, Works best with volume pedal)
E|----|----|
B|----|----|
G|-7--|-9--|  Two Bars Each, Start Each Chord with no volume
D|-7--|-9--|   then gradually increase.
A|-5--|-7--|
E|----|----|


Verse 3

Chorus

Interlude 2

Guitar 1
E|---------|-14-12----14-|
B|-15p14---|-------15----|
G|---------|-------------|   Repeatedly do the pull offs
D|---------|-------------|   
A|---------|-------------|
E|---------|-------------|

Guitar 2
E-G         Again, Play Each For A Bar
--------------------------------------------------

Guitar 1  (Light Distortion)
E|--------------|--------------|
B|--------------|--------------|   
G|--7--6--9--7-o|     ---------|    
D|--7--7--7--7-o| x3  --2--5---|
A|--5--4--7--5--|     --2--5---|
E|--------------|-------0--3---|

Guitar 2  (Clean, Palm Mute With Phaser or Flanger Effect)
E|----|----|----|----|
B|----|----|----|----|
G|-7--|----|----|----|
D|-7--|-7--|-5--|-2--|   
A|-5--|-7--|-5--|-2--|
E|----|-5--|-3--|-0--|
--------------------------------------------------
Guitar 1  (Light Distortion)
E|--------------|
B|--------------|  
G|--7--6--9--7-o|        
D|--7--7--7--7-o| x3  
A|--5--4--7--5--|     
E|--------------|

Guitar 2  (Clean, Palm Mute With Phaser or Flanger Effect)
E|----|----|----|
B|----|----|----|
G|-7--|-9--|-11-|
D|-7--|-9--|-11-|   
A|-5--|-7--|-9--|
E|----|----|----|
--------------------------------------------------
Guitar 1 (Heavy Distortion)
Hit E Two Times at the start of each bar for two bars


Chorus x 2

End On the last E of the second Chorus
            
Submit corrections

↑ Back to top | Tablatures and chords for acoustic guitar and electric guitar, ukulele, drums are parodies/interpretations of the original songs. You may use it for private study, scholarship, research or language learning purposes only