Home » O » Our Lady Peace »

Our Lady Peace - 4 Am Tabs

Artists:  A B C D E F G H I J K L M N O P Q R S T U V W X Y Z # 

4 Am Tabs

(ver. 1) Click to play this song!
Our Lady Peace
 Rating:
4/5 (4 votes)
                song-4am
band-our lady peace
album-clumsy
guitarist-mike turner

This is a great song off of olp's best album in my opinion. 
I'm not sure a/b the solo but it's a start. emeail me w/ comments
or corrections. Have fun.

tuned down 1/2 a step (loe to high: Eb Ab Db Gb Bb eb)

intro
----------------------------------
--5---5-5-5-5-----0-2--2-2-2-2-2-2   repeat x2
--6---6-6-6-6--------2-2-2-2-2-2-2
--6---6-6-6-6---2------2-2-2-2-2-2
4-4---4-4-4-4---2-----------------
----------------------------------

verse- same as intro repeat x3

pre-chorus

-------------------------------
-------------------------------
5-5-5-5-5-5-5-5-2-2-2-2-2-2-2-2
5-5-5-5-5-5-5-5-2-2-2-2-2-2-2-2
7-7-7-7-7-7-7-7-4-4-4-4-4-4-4-4
-------------------------------

chorus

--------------------------
--------------------------
--------------------------    repeat x3
----2-2-4-4-4-4-4-4-4-4---
2-2-2-2-4-4-4-4-4-4-4-4---
2-2-----2-2-2-2-2-2-2-2---

then play  (post chorus)

---------------------------
---------------------------
7-7-6-6-4-4-4-4------------
7-7-6-6-4-4-4-4------------
5-5-4-4-2-2-2-2------------

solo


-----------------------------------------------------------
-----------------------------------------------------------
9-9-11-13-13-13-13-14-13-13-13-13-14-11-11-11-11-13-9-9-9-9  repeat x4
-----------------------------------------------------------
-----------------------------------------------------------
-----------------------------------------------------------

order:
intro x2
verse x3
pre chorus x1
chorus x3
post chorus x1
verse x3
pre chorus x1
chorus x3
post chorus x1
solo x4
pre chorus x2
chorus x3
post chorus x1
chorus x3
            
Submit corrections

↑ Back to top | Tablatures and chords for acoustic guitar and electric guitar, ukulele, drums are parodies/interpretations of the original songs. You may use it for private study, scholarship, research or language learning purposes only