Home » O » Otis Redding »

Otis Redding - Sittin On The Dock Of The Bay Tabs

Artists:  A B C D E F G H I J K L M N O P Q R S T U V W X Y Z # 

Sittin On The Dock Of The Bay Tabs

(ver. 2) Click to play this song!
Otis Redding
 Rating:
4.3/5 (15 votes)
                [Main Riff]
e|--------------------------------------------------------------------------------------------------|
B|-------15------15------15---15--------------------15------15------15------15---15-----------------|
G|----14h16---14h16---14h16---14----------16(r)-----14---14h16---14h16---14h16---14---------16(r)---|
D|---------------------------------17-----16(r)---------------------------------------17----16(r)---|
A|--------------------------------------------------------------------------------------------------|
E|--------------------------------------------------------------------------------------------------|

e|-----------------------------------------------------------------------------------------------------------|
B|----15-----15--15--------------17---17-------17-------------------15---15--15--------15--15----------------|
G|-14h16--16p14--14-------16h18----18---18--16h18---16-------14h16----16--------16--14h16--14----------------|
D|-------------------17---------------------------------14------------------------------------13--16s18--18~-|
A|-----------------------------------------------------------------------------------------------------------|
E|-----------------------------------------------------------------------------------------------------------|



e|----------------------------16--------------------------------------------------------------------|
B|-----15--15-----16(r)----------16-----16---17--17--16--15--14(r)----------15p14-----15p14---------|
G|--14h16--14-----16(r)----16-------16-------17--17--16--15--14(r)-----------------14-------14------|
D|-------------17----------------------------------------------------14--17-------------------------|
A|--------------------------------------------------------------------------------------------------|
E|--------------------------------------------------------------------------------------------------|

e|-----------------------------------16-------------------------------------------------------------|
B|-----15-----15--15-----------------------------17--17--17--17--16--15--14(r)----------------------|
G|--14h16--14h16--14-----------------------------17--17--17--17--16--15--14(r)----------------------|
D|--------------------15-----16(r)---------------17--17--17--17--16--15--14(r)----------------------|
A|--------------------------------------------------------------------------------------------------|
E|--------------------------------------------------------------------------------------------------|

e|---14---------------------------------------------------------------------------------------------|
B|----------15-----15-----15--15---------------------15-----15-----15-----15------------------------|
G|-------14h16--14h16--14h16--14----------16(r)------14--14h16--14h16--14h16---------16(r)----------|
D|----------------------------------17----16(r)--------------------------------17----16(r)----------|
A|--------------------------------------------------------------------------------------------------|
E|--------------------------------------------------------------------------------------------------|

e|-----------------------------------------------------------------------------------------------------------|
B|----15-----15--15--------------17---17-------17-------------------15---15--15--------15--15----------------|
G|-14h16--16p14--14-------16h18----18---18--16h18---16-------14h16----16--------16--14h16--14----------------|
D|-------------------17---------------------------------14------------------------------------13--16s18--18~-|
A|-----------------------------------------------------------------------------------------------------------|
E|-----------------------------------------------------------------------------------------------------------|

[Bridge] "looks like nothing's, gonna change"
e|--5s7--------------5---5s7-------------5---5s7---------------------------------------------------|
B|-------7----5---------------7---5-------------------------7--------------------------------------|
G|--5s7-----------5------5s7----------5------5s7---7p5---------------------------------------------|
D|-------7----5---------------7---5---------------------5h7----7-----------------------------------|
A|-------------------------------------------------------------------------------------------------|
E|-------------------------------------------------------------------------------------------------|

e|---------------7-----7-------7s5--5--5------5---5---------10-----10-----10-----10----------------|
B|--7s5---5----------------------------------------------------------------------------------------|
G|-----------7------7-----7----7s5--------5-----------s11-------11-----11-----11-------------------|
D|--7s5--------------------------------------------------------------------------------------------|
A|-------------------------------------------------------------------------------------------------|
E|-------------------------------------------------------------------------------------------------|

e|-------------------------------------------------------------------------------------------------|
B|-----15-----15-----15--15-------16(r)----16---17--17--17--17--16--15--14(r)----------------------|
G|--14h16--14h16--14h16--14-------16(r)----16---17--17--17--17--16--15--14(r)----------------------|
D|---------------------------17--------------------------------------------------------------------|
A|-------------------------------------------------------------------------------------------------|
E|-------------------------------------------------------------------------------------------------|

e|-----------------------------------------16------------------------------------------------------|
B|--15--15--15--15--15--------16-----16-------16-----16--17--17--17--17--16--15--14(r)-------------|
G|--16--16--16--16--14--------16--------16-------16--16--17--17--17--17--16--15--14(r)-------------|
D|------------------------17-----------------------------------------------------------------------|
A|-------------------------------------------------------------------------------------------------|
E|-------------------------------------------------------------------------------------------------|

e|-------------------------------------------------------------------------------------------------|
B|-----15--15-----15--15--------------17----17--------17------------------15-----15--15------------|
G|--14h16--16--14h16--14-------16h18-----18----18--16h18---16------14h16-----16---------16---------|
D|------------------------17-----------------------------------14----------------------------------|
A|-------------------------------------------------------------------------------------------------|
E|-------------------------------------------------------------------------------------------------|

e|-------------------------------------------------------------------------------------------------|
B|-----15--15--------------------------------------------------------------------------------------|
G|--14h16--14--------------------------------------------------------------------------------------|
D|--------------13---16---18-----18~---------------------------------------------------------------|
A|-------------------------------------------------------------------------------------------------|
E|-------------------------------------------------------------------------------------------------|            
Submit corrections

↑ Back to top | Tablatures and chords for acoustic guitar and electric guitar, ukulele, drums are parodies/interpretations of the original songs. You may use it for private study, scholarship, research or language learning purposes only