Home » O » Otis Redding »

Otis Redding - Sittin On The Dock Of The Bay Tabs

Artists:  A B C D E F G H I J K L M N O P Q R S T U V W X Y Z # 

Sittin On The Dock Of The Bay Tabs

(ver. 1) Click to play this song!
Otis Redding
 Rating:
4.3/5 (23 votes)
                [Chorus]

e|-10------10------10----10----7------10------10------10----10----7----------|
B|-10h12---10h12---10h12-10----7------10h12---10h12---10h12-10----7----------|
G|--------------------------12---------------------------------12------------| 
D|---------------------------------------------------------------------------|
A|---------------------------------------------------------------------------|
E|---------------------------------------------------------------------------|

e|-10------10------10-----10------------12----12----12----12/10--------------|
B|-10h12---10h12---10h12--10--12--12/14----14----14-12h14-12/10--------------|
G|---------------------------------------------------------------------------| 
D|---------------------------------------------------------------------------|
A|---------------------------------------------------------------------------|
E|---------------------------------------------------------------------------|

e|-10----10----10----10-------------12---------------------------------------|
B|-10h12----12----12-10h12-10------------------------------------------------|
G|----------------------------11/13------------------------------------------| 
D|---------------------------------------------------------------------------|
A|---------------------------------------------------------------------------|
E|---------------------------------------------------------------------------|

[Verse 2]

e|-10-----10----10----7------16----------------------------------------------|
B|-10h12--10h12-10----7--------16--16/17---17-16-15-14---15p14----15p14------|
G|-----------------12------------16--------17-16-15-14---------14-------14---| 
D|---------------------------------------------------------------------------|
A|---------------------------------------------------------------------------|
E|---------------------------------------------------------------------------|

e|--------10----10----7------------------------------------------------------|
B|--------10h12-10----7-------------16/17--17-16-15-14-----------------------|
G|-----------------12--------------------------------------------------------| 
D|----------------------------------16/17--17-16-15-14-----------------------|
A|---------------------------------------------------------------------------|
E|---------------------------------------------------------------------------|

[Chorus]

e|-10------10------10----10----7------10------10------10----10----7----------|
B|-10h12---10h12---10h12-10----7------10h12---10h12---10h12-10----7----------|
G|--------------------------12---------------------------------12------------| 
D|---------------------------------------------------------------------------|
A|---------------------------------------------------------------------------|
E|---------------------------------------------------------------------------|

e|-10------10------10-----10------------12----12----12----12/10--------------|
B|-10h12---10h12---10h12--10--12--12/14----14----14-12h14-12/10--------------|
G|---------------------------------------------------------------------------| 
D|---------------------------------------------------------------------------|
A|---------------------------------------------------------------------------|
E|---------------------------------------------------------------------------|

e|-10----10----10----10-------------12---------------------------------------|
B|-10h12----12----12-10h12-10------------------------------------------------|
G|----------------------------11/13------------------------------------------| 
D|---------------------------------------------------------------------------|
A|---------------------------------------------------------------------------|
E|---------------------------------------------------------------------------|

[Bridge]

e|-/7----/11----11\9---------5/7----/11----11\9------------------------------|
B|---------------------------------------------------------------------------|
G|-/7----/12----12\10--------5/7----/12----12\10-----------------------------| 
D|---------------------------------------------------------------------------|
A|---------------------------------------------------------------------------|
E|---------------------------------------------------------------------------|

e|-5-5/7--/11--11\9---7--7--7\5-5--------10----10----------------------------|
B|---------------------------------------------------------------------------|
G|-5-5/7--/12--12\10--7--7--7\5-5---5/11----11-------------------------------| 
D|---------------------------------------------------------------------------|
A|---------------------------------------------------------------------------|
E|---------------------------------------------------------------------------|

[Verse 3]

e|-10----10----10----10----10----10----11--11/12---12-11-10-9----------------|
B|-10h12-10h12-10h12-10h12-10h12-10h12-----12/13---13-12-11-10---------------|
G|---------------------------------------------------------------------------| 
D|---------------------------------------------------------------------------|
A|---------------------------------------------------------------------------|
E|---------------------------------------------------------------------------|

e|-10----10----10----10----10----10--------16--------------------------------|
B|-10h12-10h12-10h12-10h12-10h12-10h12-------16---16/17--17-16-15-14---------|
G|---------------------------------------------16-16/17--17-16-15-14---------| 
D|---------------------------------------------------------------------------|
A|---------------------------------------------------------------------------|
E|---------------------------------------------------------------------------|

[Chorus]

e|-10------10------10----10----7------10------10------10----10----7----------|
B|-10h12---10h12---10h12-10----7------10h12---10h12---10h12-10----7----------|
G|--------------------------12---------------------------------12------------| 
D|---------------------------------------------------------------------------|
A|---------------------------------------------------------------------------|
E|---------------------------------------------------------------------------|

e|-10------10------10-----10------------12----12----12----12/10--------------|
B|-10h12---10h12---10h12--10--12--12/14----14----14-12h14-12/10--------------|
G|---------------------------------------------------------------------------| 
D|---------------------------------------------------------------------------|
A|---------------------------------------------------------------------------|
E|---------------------------------------------------------------------------|

e|-10----10----10----10-------------12---------------------------------------|
B|-10h12----12----12-10h12-10------------------------------------------------|
G|----------------------------11/13------------------------------------------| 
D|---------------------------------------------------------------------------|
A|---------------------------------------------------------------------------|
E|---------------------------------------------------------------------------|

[Outro] (Transcribed from whistling to guitar)

e|----------------------------------------------------------------------------------|
B|-17b20-17-15----------------------------------------------------------------------|
G|-------------16------------------------------------------------------------15-15\-| 
D|-----------------14b16-14-pb16pbr14--14-12--14b16-14-pb16pbr14-14p12-14/16--------|
A|----------------------------------------------------------------------------------|
E|----------------------------------------------------------------------------------|
            
Submit corrections

↑ Back to top | Tablatures and chords for acoustic guitar and electric guitar, ukulele, drums are parodies/interpretations of the original songs. You may use it for private study, scholarship, research or language learning purposes only