» » »

Osker - Kinetic Tabs

Artists:  A B C D E F G H I J K L M N O P Q R S T U V W X Y Z # 

Kinetic Tabs

(ver. 1) Click to play this song!
Osker
 Rating:
4/5 (4 votes)

 Kinetic lessons Tabs too difficult? Try these video lessons and learn fast
 
                "kinetic" by osker
i found a bunch of other tabs for this
none really made any sense..
so here it is
courtesy of
me :]

------------------------|
------------------------|
-8------6-----4---------|
-8------6-----4---------|
-6------4-----2---------|
------------------------| x8
Through the strength of your arms....

------------------------------|
------------------------------|
---6-------8-----4------------|
---6-------8-----4------------|
---4-------6-----2------------|
------------------------------| x2
I'm not looking to get old.....


------------------------|
------------------------|
-8------6-----4---------|
-8------6-----4---------|
-6------4-----2---------|
------------------------| x8

 At a slow steady pace....

-------------------------------|----------------|
-------------------------------|----------------|
-----6-----8----4--------------|----8------11---|
-----6-----8----4--------------|----8------11---|
-----4-----6----2--------------|----4------9----|
-------------------------------|----------------|
im not looking to get old....(x2)      (ending)

----------------------------------|
----------------------------------|
---4---8---4---6---4--6---4---11--|
---4---8---4---6---4--6---4---11--|
---2---6---2---4---2--8---2---9---|
----------------------------------|
   im alone but im not lonely 
  

Interlude:
------------------|
------------------|
---4----11---8----|
---4----11---8----|
---2----9----6----|
------------------| x4
                     
        
-------------------------------|----------------|
-------------------------------|----------------|
-----6-----8----4--------------|----8------11---|
-----6-----8----4--------------|----8------11---|
-----4-----6----2--------------|----4------9----|
-------------------------------|----------------|
  Sometimes its those nights  (x2)  (ending)


----------------------------------|
----------------------------------|
---4---8---4---6---4--6---4---11--|
---4---8---4---6---4--6---4---11--|
---2---6---2---4---2--8---2---9---|
----------------------------------|
Im alone but im not lonely
            
Submit corrections


        Kinetic lessons Hard to play? Try these video lessons and learn fast Kinetic lessons
        
↑ Back to top | Tablatures and chords for acoustic guitar and electric guitar, ukulele, drums are parodies/interpretations of the original songs. You may use it for private study, scholarship, research or language learning purposes only