Home » O » Orbit »

Orbit - Amp Tabs

Artists:  A B C D E F G H I J K L M N O P Q R S T U V W X Y Z # 

Amp Tabs

(ver. 1) Click to play this song!
Orbit
#


Band: Orbit
Tuning: Standard


[Note: Please do not modify this tab without
 consulting the author]
 This should be printed with a fixed font
 (I recommend using Notepad for Windows)


Notation Used:
  > = slide to note
  ^ = bend string

INTRO/VERSE:
    G5    F#        Em
E]---------------------------------------|
B]---------------------------------------|
G]---------------------------------------|  [x4]
D]--5-5---4-4-4-4---2-2-2-2-2-2----------|
A]--5-5---4-4-4-4---2-2-2-2-2-2----------|
E]--3-3---2-2-2-2---0-0-0-0-0-0----------|

    D5
E]------------|
B]------------|
G]--7---------|
D]--7-[x12]---|
A]--5---------|
E]------------|

CHORUS:


    A5  G5  A5  G5  A5  G5  D5
E]----------------------------------|
B]----------------------------------|
G]--------------------------7-------|
D]--7---5---7---5---7---5---7-------|
A]--7---5---7---5---7---5---5-------|
E]--5---3---5---3---5---3-----------|

  [Play chords several times where
    applicable]

BRIDGE: (1:34 sec into track)


E]--------------|
B]--------------|
G]--------------| [Play for 14+ seconds]
D]--16-16-x-----|
A]--14-14-x-----|
E]--------------|

E]--------------------------------------|
B]--------------------------------------|
G]--16-16--x-x--16-16--x--16------------| [Play for 10+ seconds]
D]--16-16--x-x--16-16--x--16--14>15>14--|
A]--14-14--x-x--14-14--x--14------------|
E]--------------------------------------|

E]--------------|
B]--------------|
G]--------------|
D]--16-16-x-----|
A]--14-14-x-----|
E]--------------|


************************************************
----
Intro
Verse
Chorus
Verse
Chorus
Bridge
Verse
Chorus


Lyrics:
-------

(VERSE)
She rips my mind out
She tears my tongue out
She pulls my brain out and feeds it to me
She wants it so bad
The worst I ever had
But something's peculiar
And she says to me

(CHORUS)
"Oh, didn't anyone
Oh, didn't anyone
Oh, didn't anyone tell you about me?"

(VERSE)
Make mine the real deal
She got a ghost and I cop a feel
Please make it easy so I can't complain
She's like a brain drain
She's got a touch of the pain game
She makes me nervous but I can't explain

(CHORUS)
"Oh, didn't anyone
Oh, didn't anyone
Oh, didn't anyone tell you about me?"

(BRIDGE)

(VERSE)
Maybe I'm crazy
It's just she makes me hazy
I've got a feeling that I can't explain

(CHORUS)
"Oh, didn't anyone
Oh, didn't anyone
Oh, didn't anyone tell you about me?"

--------------------------------------------------------------
NOTES:
  Well, there it is. It should be correct, but the bridge might
  be a bit off.
  I've got a whole bunch of Orbit tabs in the works,
  check my web page for the latest.
   If you have any other Orbit tab, please email it to me.
      Brandon Wolfe

Song written by Jeff Lowe Robbins.

======================================
Brandon Wolfe

  Rensselaer Polytechnic Institute
         Computer Science

"I should have no feeling, because
  feeling is pain.  Everything I need
  is denied to me, and everything I want
  is taken away from me.  But who have
  I got to blame?  Nobody but me.
     It's time I got back...."
======================================
            
Submit corrections

↑ Back to top | Tablatures and chords for acoustic guitar and electric guitar, ukulele, drums are parodies/interpretations of the original songs. You may use it for private study, scholarship, research or language learning purposes only