» » »

High Speed Changer Tabs - Orange 9mm

Artists:  A B C D E F G H I J K L M N O P Q R S T U V W X Y Z # 

High Speed Changer Tabs

(ver. 1) Click to play this song!
Orange 9mm
4/5 (4 votes)
    High Speed Changer lessons Tabs too difficult? Try these video lessons and learn fast

High Speed Changer      by Orange 9mm
                        from the album "Driver (Not Included)"
                        words and music by Chaka Malik, Chris Traynor,
                                Matthew Cross, and Davide Gentile
Dropped-D Tuning (DADGBE)
E ---|---------------|----------------------------
B ---|---------------|----------------------------
G ---|.---------5/7-.|----------------------------
D ---|.---------5/7-.|----------------------------
A -0-|--3-5-6-5-3/5--|----------------------------
D -0-|--3-5-6-5------|----------------------------
E ------------------------------------------------
B ------------------------------------------------
G ------------------------------------------------
D --7-7-7-6-6-6-5-5-5-4-4-4-4-4-4-----------------
A ------------------------------------------------
D ------------------------------------------------
E ------------------------------------------------
B ----5-----6-----7-------------------------------
G ----5-----6-----7-------------------------------
D ----5-----6-----7-------------------------------
A -0--3--0--4--0--5-------------------------------
D -0-----0-----0----------------------------------
E ------------------------------------------------
B ------------------------------------------------
G ------------------------------------------------
D -10-\-\-\-\-\-\-\-\-\-\-\-\--0------------------
A -10-\-\-\-\-\-\-\-\-\-\-\-\--0------------------
D -----------------------------0------------------
   ^tremolo pick all the way down
Submit corrections

↑ Back to top | Tablatures and chords for acoustic guitar and electric guitar, ukulele, drums are parodies/interpretations of the original songs. You may use it for private study, scholarship, research or language learning purposes only