» » »

Opeth - To Rid The Disease Bass

Artists:  A B C D E F G H I J K L M N O P Q R S T U V W X Y Z # 

To Rid The Disease Bass

(ver. 2) Click to play this song!
Opeth
 Rating:
4/5 (4 votes)
                Opeth     - To Rid the Disease
Album     - ***ation (2003)

Many thanks go out to Opeth for giving us this, and every other song in their catalogue.

All of the basslines are here...and the song order is pretty simple.

0:00
----------
----------
----------
--3-------

0:43
----------------------------
-----------------------3h5--
--------------------3h5-----
--3----3----3---3-3---------

1:12
-------------------------
-------------------------
--7---7>5--5>4--4>3-3--33
--0----------------------

3:37
------------------------------------------------------
------------------------------------------------------
--------------------------------------2--2-1-1--------
0---0-0-0--0-0-4---4---3---3-0-0--0-0------------3-2--

4:17
-------4-----------3--/2-
----2--------------------
-0-------------5---------
------------3------------

4:39
----------------------------
----------------------------
-5-------------12-----------
----1--5---/10-----5-7-6-3--

Pretty simple song, but fun to play.
            
Submit corrections

↑ Back to top | Tablatures and chords for acoustic guitar and electric guitar, ukulele, drums are parodies/interpretations of the original songs. You may use it for private study, scholarship, research or language learning purposes only