Home » O » Opeth »

Opeth - Ending Credits Bass

Artists:  A B C D E F G H I J K L M N O P Q R S T U V W X Y Z # 

Ending Credits Bass

(ver. 1) Click to play this song!
Opeth
this is really and easy song, all you have to do is listen to the song
to get the timing down

main riff
G|-------------------------------------------------------------|
D|-----------------------------------4h5p4---4-----------------|
A|-------75---0----0-----------------------7---5h7-------------|
E|0-00-0----7---00---750-7-77-7-7-77---------------0-232-232-0-|

there are variations in this riff. ill only tab 2
G|------------------------------------------------------------------|
D|------------------7---75----------------4h5p4---4-----------------|
A|-------75---0-5h7---7----70-------------------7---5h7-------------|
E|0-00-0----7-----------------7-77-7-7-77---------------0-232-232-0-|

G|---------------------------------------------------------------------|
D|------------------7---7/9-7----------------4h5p4---4-----------------|
A|-------75---0-5h7---7-------70-------------------7---5h7-------------|
E|0-00-0----7--------------------7-77-7-7-77---------------0-232-232-0-|

chorus
G|----------------------------------------------------|
D|----------------------------------10----------------|
A|3-3-33-22-22-2-2---------------10----10----3-3-33-2-|
E|-----------------0-0-10-1010-8----------8\----------|

bridge
G|---------9-|
D|-------9---|
A|-----7-----|
E|7-77-------|

Order
Main Riff 8X(counting fade in)
Chorus
Bridge 4X
Main Riff 4X
Chorus
Bridge 4X then fade
            
Submit corrections

↑ Back to top | Tablatures and chords for acoustic guitar and electric guitar, ukulele, drums are parodies/interpretations of the original songs. You may use it for private study, scholarship, research or language learning purposes only