Home » O » Opeth »

Opeth - River Tabs

Artists:  A B C D E F G H I J K L M N O P Q R S T U V W X Y Z # 

River Tabs

(ver. 1) Click to play this song!
Opeth
Tuning:EADGBE


Intro riff (this intro riff has a variation after the intro)

e|---------------------3-----------3------------------------------------|
B|----3-3-----3-3-------3-----------3-----------------------------------|
G|-----0-0-----0-0----0---0-------0---0-------0-----0-----0-----0-------|
D|---4-------4-------2-----------2-----------0-0---0-0---0-0---0-0------|
A|--5-------5-------3-----------3-----------3---3-3---3-2---2-2---2-----|
E|-----------------------------------------3-----3-----3-----3-----3----|



-----------------MISSING PART HERE----------------------



First Solo:

e|---------------------------------------------------------------------------|
B|---------------------------------------------------------------------------|
G|---------------------------------------------------------------------------|
D|--12--10--10h12p10s9--9h10p9---------9h10--7h9--7h9------------------------|
A|------------------------------10h12------------------10--------------------|
E|---------------------------------------------------------------------------|

e|---------------------------------------------------------------------------|
B|---------------------------------------------------------------------------|
G|--2h4p2p0---0--------------------------------------------------------------|
D|----------4---2-4-0-2---0--------------------------------------------------|
A|----------------------3---2-3-0-2------------------------------------------|
E|----------------------------------3----------------------------------------|

e|---------------------------------------------------------------------------|
B|---------------------------------------------------------------------------|
G|-7s9b10rb9-7--5h7--4--4h5p4---4---------------------7s12-12--14b15rb14--12-|
D|----------------------------7---5h7--7s9b10rb9p7s5-------------------------|
A|---------------------------------------------------------------------------|
E|---------------------------------------------------------------------------|



Verse Chords: 

Gm  Dm  Gm  Bm 
Gm  Dm  Gm  Dmaj7  D7  E



e|---------------------------------------------1--------1--------0--------0--|
B|---------------------------------------------3--------3--------3--------3--|
G|-------5--------4--------2--------2-------2--------2--------3--------3-----|
D|----2--------5--------2--------4-------0--------0--------0--------0--------|
A|-0--------2--------3--------5----------------------------------------------|
E|---------------------------------------------------------------------------|
            
Submit corrections

↑ Back to top | Tablatures and chords for acoustic guitar and electric guitar, ukulele, drums are parodies/interpretations of the original songs. You may use it for private study, scholarship, research or language learning purposes only