» » »

Opeth - Leper Affinity Tabs

Artists:  A B C D E F G H I J K L M N O P Q R S T U V W X Y Z # 

Leper Affinity Tabs

(ver. 3) Click to play this song!
Opeth
 Rating:
4/5 (4 votes)

 Leper Affinity lessons Tabs too difficult? Try these video lessons and learn fast
 
                "Opeth - The Leper Affinity

. - Play staccato (very short)

_ - Palm mute

* - Pinch harmonic





Tuning: EADGBE



|----------------------------------------------------------------------------------------|
|----------------------------------------------------------------------------------------|
|-/9~--9--7--5--7b9r7--5--7--5--4h5p4~~--------------------------------------------------|
|----------------------------------------------------------------------------------------|
|----------------------------------------------------------------------------------------|
|----------------------------------------------------------------------------------------|
       .  .  .     

  
|----------------------------------------------------------------------------------------|
|-------------------------------------------12-13-15-15b17~~r15--------------------------|
|----------9-11-11h12r11-9-11----9-11-12-14----------------------------------------------|
|--------9--------------------12---------------------------------------------------------|
|-7-9-10---------------------------------------------------------------------------------|
|----------------------------------------------------------------------------------------|
  . . .  . .


|----------------------------------------------------------------------------------------|
|--12h15p12----12------------------------------------------------------------------------|
|-----------14----14b16r14-14b16r14-12~~-11h12p11----9-----------------------------------|
|-------------------------------------------------12-------------------------------------|
|-------------------------------------------------------10-9-7-9-10~~--------------------|
|----------------------------------------------------------------------------------------|



|----------------------------------------------------------------------------------------|
|-------------------------------------------------------12-13-12-------------------------|
|-/9-7--------------------------------------7---7--9-12----------12-9~~------------------|
|------7-5-7b9r7-5-7-5-4-5-4-0---0------7-9---9---------------------------9~~---9*~~-----|
|------------------------------7---7-10--------------------------------------------------|
|----------------------------------------------------------------------------------------|



|----------------------------12--10--12--14--15--14--------------------------------------|
|-------------------------12-------------------------15--12~~----------------------------|
|--------0-------------9-----------------------------------------------------------------|
|-7b8r7-----7--9--10~~-------------------------------------------------------------------|
|----------------------------------------------------------------------------------------|
|----------------------------------------------------------------------------------------|



|----------------12--14--15--14h15p14--12--14--12----------------------------------------|
|-15b17--15b17~~-----------------------------------15----------15b16---------------------|
|------------------------------------------------------14~-12~-14b15--14p12--------------|
|----------------------------------------------------------------------------14----------|
|--------------------------------------------------------------------------------14~-----|
|----------------------------------------------------------------------------------------|



|-13--10-----10--------------------------------------------------------------------------|
|---------12-----12--9--12--9------9-----------------------------------------------------|
|------------------------------10-----10--7--10--7-----7---------------------------------|
|---------------------------------------------------9-----9--6---------------------------|
|---------------------------------------------------------------8~~----------------------|
|----------------------------------------------------------------------------------------|
|
|
|
|----------------------7h10--10--13--10--------------------------------------------------|
|------------------6h9-------------------12--9-------------------------------------------|
|--------------4h7------------------------------10---------------------------------------|
|----------3h6--------------------------------------12~~---------------------------------|
|------2h5-------------------------------------------------------------------------------|
|-1h4------------------------------------------------------------------------------------|
"            
Submit corrections


        Leper Affinity lessons Hard to play? Try these video lessons and learn fast Leper Affinity lessons
        
↑ Back to top | Tablatures and chords for acoustic guitar and electric guitar, ukulele, drums are parodies/interpretations of the original songs. You may use it for private study, scholarship, research or language learning purposes only