» » »

Opeth - Hex Omega Tabs

Artists:  A B C D E F G H I J K L M N O P Q R S T U V W X Y Z # 

Hex Omega Tabs

(ver. 1) Click to play this song!
Opeth
 Rating:
4/5 (4 votes)

 Hex Omega lessons Tabs too difficult? Try these video lessons and learn fast
 
                ----------------------------------------------------------------------------
----------------------------------------------------------------------------

| /  slide up
| \  slide down
| h  hammer-on
| p  pull-off
| ~  vibrato
| +  harmonic
| x  Mute note

Tuning:Standard

Note: 1ST riff is probably a little off. Sounds good.

The 2nd Dist riff should be perfect. From what I gather the two Dist guitars
 are almost exactly the same except for when Fredrik plays his solo section as seen on 
behind the scenes video (The Rehearsal Sessions).

The last riff is simple enough to learn by ear. Last chord's probably wrong but sounds ok.

This tab may not be fully correct. Corrections are welcomed. Please rate. ;)


Distortion Riff
E|-----------------------------------------------------|
B|-----------------------------------------------------|
G|-----------------------------------------------------|
D|-----------------------------------------------------|
A|------------------------------------5---5-7b8(7)~----|
E|--0---12-13-12-13-10-0---0----0h4h7---7--------------|

Dist.
e|--0-----------------------------12+---------------------|
B|----0--------------------------------12+----------------|
G|------7---------9----------------12+----------9b10~-----|
D|--------8-------6---------------------------------------|
A|----------7---x-7---7-8-5-7-------------------7b8~------|
E|--------------x-0-------------0-------------------------|

E|-----------------------------------------------------|
B|-----------------------------------------------------|
G|-----------------------------------------------------|
D|-----------------------------------------------------|
A|------------------------------------5---5-7b8(7)~----|
E|--0---12-13-12-13-10-0---0----0h4h7---7--------------|

Dist.
e|--0---------------------------12+---------------------|
B|----0------------------------------12+----------------|
G|------7---------9---------------12+-----9b10~---------|
D|--------8-------6-------------------------------------|
A|----------7---x-7---7-8-5-7-------------7b8~----------|
E|--------------x-0-----------0-------------------------|

E|-----------------------------------------------------|
B|-----------------------------------------------------|
G|-----------------------------------------------------|
D|-----------------------------------------------------|
A|------------------------------------5---5-7b8(7)~----|
E|--0---12-13-12-13-10-0---0----0h4h7---7--------------|

Dist.
e|--0---------------------------12+---------------------|
B|----0------------------------------12+----------------|
G|------7---------9---------------12+-----9b10~---------|
D|--------8-------6-------------------------------------|
A|----------7---x-7---7-8-5-7-------------7b8~----------|
E|--------------x-0-----------0-------------------------|

Clean Riff
e|-----------------------------------|
B|-----------------------------------|
G|-----9-----------13--------9-------|
D|-----------------------------------|
A|---7----------11---------7---------|
E|-0---------------------0-----------|


Clean Riff
e|----------------------------------|
B|----------------------------------|
G|-----6\5---5\2---2/3--3--2-2------|
D|-----------------------------3-2--|
A|---7-----7-----0-----1---0-0------|
E|-0---------------------------1-0--|

Dist: 2nd Riff

Mikael: X2. Note: Bend that 9 like Beckham to fit the whole note in.

e |------------------------------------------------------|
B |------------------------------------9b----------------|
G |--------------------------7-9-9/10-9---9--------------|
D |----------------------5/6----------------6b--6--------|
A |--------------------------------------------8--8------|
E |--0-0-0-0-0-0-0-0--0-----------------------------4----|

e|----------------------------------------------|
B|----------------------------------------------|
G|-------7--------------1-1-----7-7-----2-------|
D|---5/6-------10\9-----2-2-----7-7-----3-------|
A|-------------8\7------2-2-----5-5-----3-------|
E|-0-------0-0------0-0-0-0-0-0-5-5-0-0-1-------|

e |---------------------------------------|
B |---------------------9b----------------|
G |-----------7-9-9/10-9---9--------------|
D |-------5/6----------------6b--6--------|
A |-----------------------------8--8------|
E |----0-----------------------------4----|

e|----------------------------------------------|
B|----------------------------------------------|
G|-------7--------------1-1-----7-7-----2-------|
D|---5/6-------10\9-----2-2-----7-7-----3-------|
A|-------------8\7------2-2-----5-5-----3-------|
E|-0-------0-0------0-0-0-0-0-0-5-5-0-0-1-------|

Fredrik: X2 Note: Bend that 13 like Beckham to fit the whole note in.

e |--------------------------------------------------------|
B |--------------------------------------------------------|
G |--------------------------7-9-9/10-9-13b-9--------------|
D |----------------------5/6------------------6b--6--------|
A |----------------------------------------------8--8------|
E |--0-0-0-0-0-0-0-0--0-------------------------------4----|

e|---------------------------------------------------|
B|---------------------------------------------------|
G|-------7-------------------1-1-----7-7-----2-------|
D|---5/6---------------------2-2-----7-7-----3-------|
A|--------------14/15-14-----2-2-----5-5-----3-------|
E|-0--------0-0-12/13-12-0-0-0-0-0-0-5-5-0-0-1-------|

e |------------------------------------------|
B |------------------------------------------|
G |-----------7-9-9/10-9-13b--9--------------|
D |-------5/6-------------------6b--6--------|
A |--------------------------------8--8------|
E |----0--------------------------------4----|

e|---------------------------------------------------|
B|---------------------------------------------------|
G|-------7-------------------1-1-----7-7-----2-------|
D|---5/6---------------------2-2-----7-7-----3-------|
A|--------------14/15-14-----2-2-----5-5-----3-------|
E|-0--------0-0-12/13-12-0-0-0-0-0-0-5-5-0-0-1-------|

Clean: 1st Riff
e|-----------------------------------|
B|-----------------------------------|
G|-----9-----------13--------9-------|
D|-----------------------------------|
A|---7----------11---------7---------|
E|-0---------------------0-----------|

Clean Riff
e|----------------------------------|
B|----------------------------------|
G|-----6\5---5\2---2/3--3--2-2------|
D|-----------------------------3-2--|
A|---7-----7-----0----1----0-0------|
E|-0---------------------------1-0--|

Dist. Last Riff

Mikael:

e|--------------------------------------|
B|--------------------------------------|
G|--------------------------------------|
D|---------------------------10-9-------|
A|--7h8-8~-------7h8-8~------10-9-9~----|
E|------------0-----------0-------7~----|

Fredrik:

e|--------------------------------------|
B|--------------------------------------|
G|---------------------------5-4--------|
D|--2h3-3~-------2h3-3~------3-2-4~-----|
A|-------------------------------2~-----|
E|------------0-----------0-------------|
            
Submit corrections


        Hex Omega lessons Hard to play? Try these video lessons and learn fast Hex Omega lessons
        
↑ Back to top | Tablatures and chords for acoustic guitar and electric guitar, ukulele, drums are parodies/interpretations of the original songs. You may use it for private study, scholarship, research or language learning purposes only