Home » O » Opeth »

Opeth - Demon Of The Fall Bass

Artists:  A B C D E F G H I J K L M N O P Q R S T U V W X Y Z # 

Demon Of The Fall Bass

(ver. 2) Click to play this song!
Opeth
 Rating:
4/5 (4 votes)
                                           DEMON OF THE FALL
                          As recorded by Opeth
                 (From the 1998 Album MY ARMS, YOUR HEARSE)



Gtr I (D A D G) - 'Mikael Akerfeldt, Clean Bass'



.  - palm mute           /  - slide up to
\  - slide down to       ~  - vibrato
h  - hammer on           b  - Bend
p  - pull off            Suffixes for bend
t  - tap                 f  - full bend    h - half bend
ph - pinched harmonic    q  - quarter bend t - tap bend
*  - see comment         ^  - Hold bend    r release bend
x  - Stuccatto           ~  - vibrato bend
,  - slight palm mute    () - ghost note, sustained note
"  - tremolo note        <> - Trill




|-------------------------------------------------------------------|
|-------------------------------------------------------------------|
|--5-5555---------------------01-65-355---------01-6-68986----------|
|---------7-7777-6-6666666666-----------0-0-0-0---------------------|


fill

|-----------|
|-----------|
|-----------|
|-6-1-1-1-0-|


|-----------------|
|-----------------|
|-5p00000-5p00000-|
|-----------------|

|-----------|
|-----------|
|-11-10-8/5-|
|-----------|

|--------------------------------------------------|
|--------------------------------------------------|
|----------------------------------------------5---|
|-1-1111-0-0-0-0-1-1111/5-5-5-5-1-1111-0-0-0-0--6-5|

|-----|
|-----|
|--5--|
|-----|

|---------------------------------------------------------|
|---------------------------------------------------------|
|-/5-5-----------/4-4---------/3-3------------------------|
|------3p0-0-0-0------3p0-0-0------3p0-0-0-0-/3-3-/5-5-5\-|

|------------------------------------------------|
|-----------------------------------------87-----|
|-----------55555p444444-000000---------87--8-7-5|
|-0-0-0-0-0---------------------00000-87---------|

|------------------------------------------------------|
|---------66666666-------------------66666666-55555555-|
|-55555555--------3333333333-55555555------------------|
|------------------------------------------------------|

|-7-7-7-7-7-7-|
|-6-6-6-6-6-6-|
|-------------|
|-------------|

|---------|
|---------|
|-4----3b-|
|--4b-3---|

|---------------|
|---------------|
|-54------5-----|
|---0-0-23-56-0-|

|-------------------------------------|
|-------------------------------------|
|-------------------------------------|
|-55555555-00000000-33333333-00000000-| until end.
            
Submit corrections

↑ Back to top | Tablatures and chords for acoustic guitar and electric guitar, ukulele, drums are parodies/interpretations of the original songs. You may use it for private study, scholarship, research or language learning purposes only