» » »

Oomph! - Brennende Liebe Bass

Artists:  A B C D E F G H I J K L M N O P Q R S T U V W X Y Z # 

Brennende Liebe Bass

(ver. 2) Click to play this song!
Oomph!
 Rating:
4/5 (4 votes)
                verse:
|------------------------------------|
|------------------------------------|
|------------------------------------|x4
|-1-11-1---3-33-3---5-55-5--5-55-5---|

Chorus
|-------------------|
|-------------------|
|-------------------|x2
|-1~---2~---5~------|

verse:
|------------------------------------|
|------------------------------------|
|------------------------------------|x4
|-1-11-1---3-33-3---5-55-5--5-55-5---|

Chorus
|-------------------|
|-------------------|
|-------------------|x4
|-1~---3~---5~------|

Bridge:
|-------------------|
|-------------------|
|--0-0-0------------|x3
|---------4--5--7---|

|-------------------|
|-------------------|
|--0-0-0---------00-|
|---------4-4-4-----|
p.m.      . . .

Chorus
|-------------------|
|-------------------|
|-------------------|x4
|-1~---3~---5~------|
            
Submit corrections

↑ Back to top | Tablatures and chords for acoustic guitar and electric guitar, ukulele, drums are parodies/interpretations of the original songs. You may use it for private study, scholarship, research or language learning purposes only