» » »

One Dollar Short - Unsung Hero Tabs

Artists:  A B C D E F G H I J K L M N O P Q R S T U V W X Y Z # 

Unsung Hero Tabs

(ver. 1) Click to play this song!
One Dollar Short
 Rating:
4/5 (5 votes)


 Unsung Hero lessons Tabs too difficult? Try these video lessons and learn fast
 
                
Tuning:EADGbe

Intro - Guitar 1 (clean)
e|--------------------------------------|
B|--------------------------------------|
G|----9--------9--------6---------------|
D|----7--------7--------7---------------| x2
A|----9--------5--------7--------7------|
E|----------------------5--------4------|
Listen to CD for timing and Rythm

Intro 2 - Guitar 1 (Distortion)
e|---------------------------0----------------|
B|----------------------------0---------------|
G|-------------7------------------------------|
D|----4--------7--------7-7-------------------| x2
A|----4--------5--------7-7------------7------|
E|----2-----------------5-5------------4------|                
On second time dont play the open notes (b & e)

Guitar 2 (0:23)
e|------------------------------------------------------------------|
B|------------------------------------------------------------------|
G|---11---------14----13----14--------19----18--------16----18------|
D|------------------------------------------------------------------|
A|----9-/-------12----11----12--------17----16--------14-/--16------|
E|------------------------------------------------------------------|
Play on the second time of intro 2

Guitar 1 - Verse - You were the one that taught me.....
e|--------------------------------------------------------|
B|--------------------------------------------------------|
G|---------------------------7-777777--6/7-6--------------|
D|----4-444444-4-2-222222-2--7-777777-------7-------------| x2
A|----4-444444-4-2-222222-2--5-555555---------4/5-4-------|
E|----2-222222-2-0-000000-0------------------------5------|
pm      ......     ......      ......

Guitar 1 - You were always there..... 
e|-------------------------------------------|
B|-------------------------------------------|
G|----------------------7-7-7-7-7-7-7-7------|
D|----4-4-4-4--2-2-2-2--7-7-7-7-7-7-7-7------| 
A|----4-4-4-4--2-2-2-2--5-5-5-5-5-5-5-5------|
E|----2-2-2-2--0-0-0-0-----------------------|
Listen to CD for rythm and timing of this part

Guitar 1
e|----------------------------------------------------------|
B|----------------------------------------------------------|
G|----------------------7-7-7-7--------999999----13---------|
D|----4-4-4-4--2-2-2-2--7-7-7-7--------999999---------------|
A|----4-4-4-4--2-2-2-2--5-5-5-5--------777777----11-/<------|
E|----2-2-2-2--0-0-0-0--------------------------------------|

Guitar 1 - Chorus - Did I ever tell you.....
e|-------------------------------------------------------------|
B|-------------------------------------------------------------|
G|-------------9-------11-------------------------------9------|
D|----7--------9-------11--------7----7--------7--------9------|
A|----7--------7--------9--------4----5--------7--------7------|
E|----5----------------------------------------5---------------|

Guitar 2 (1:17)
e|----------------------------------------------------------------------12----19----|
B|----5/7-5----------------------------------------------------5----9hp-------------|
G|---------7-6-6/7--------------------------------6-7-------6^----------------------|
D|----------------7~--------------------------6-7------7-6~-------------------------| 
A|-------------------2-2/4-0-2-2/4--2~----6h7---------------------------------------|
E|-------------------------------------------7--------------------------------------|

Guitar 1  
e|--------------------------------------|
B|--------------------------------------|
G|-------------7------------------------|
D|----4--------7--------7---------------| X2 
A|----4--------5--------7--------7------|
E|----2-----------------5--------4------|
 
back to verse.

Guitar 1 - Chorus - Did I ever tell you.....
e|-------------------------------------------------------------|
B|-------------------------------------------------------------|
G|-------------9-------11-------------------------------9------|
D|----7--------9-------11--------7----7--------7--------9------|
A|----7--------7--------9--------4----5--------7--------7------|
E|----5----------------------------------------5---------------|

Guitar 1 
e|-------------------------------------------------------------------------|
B|-------------------------------------------------------------------------|
G|-------------9-------11-------------------------------9----999-101010----|
D|----7--------9-------11--------7----7--------7--------9----999-101010----|
A|----7--------7--------9--------4----5--------7--------7----777--8-8-8----|
E|----5----------------------------------------5---------------------------|
pm                                                           ...  . . . 

e|---------------------------------------------------|
B|---------------------------------------------------|
G|----9--------9--------6h7-6------------------------|
D|----7--------7--------7----------------------------| x2
A|----9--------5--------7------------7---------------|
E|----------------------5------------4----HARMONICS--|
Listen to CD for timing and rythm

Guitar 2 (2:47)
e|---------------------------------------------------------|
B|---------------------------------------------------------|
G|----9----1414-13-14-13--------18----1919-18-19-18--------|
D|------------------------(x2)-----------------------(x2)--| 
A|----7----1212-11-12-11--------16----1717-16-17-16--------|
E|---------------------------------------------------------|
 

Guitar 2 
e|---------------------------------------------------------------|      
B|---------------------------------------------------------------|      
G|----14----1616-14-16-14--------18----1919-18-19-18----18-------|
D|---------------------------------------------------------(x5)--| 
A|----12----1414-12-14-12--------16----1717-16-17-16----16-------|
E|---------------------------------------------------------------|

Guitar 1  
e|--------------------|
B|--------------------|
G|--------------------|
D|----222----666------|
A|----222----666------|
E|----000----444------|
pm    ...    ...

Guitar 1 - Chorus - Did you know that your.....
e|-------------------------------------------------------------|
B|-------------------------------------------------------------|
G|-------------9-------11-------------------------------9------|
D|----7--------9-------11--------7----7--------7--------9------| x2
A|----7--------7--------9--------4----5--------7--------7------|
E|----5----------------------------------------5---------------|

Guitar 1 - Outro - Your my hero......
e|--------------------------------------|
B|--------------------------------------|
G|-------------7------------------------|
D|----4--------7--------7---------------| X4 
A|----4--------5--------7--------7------|
E|----2-----------------5--------4------|

Guitar 2 - Outro
e|----9-------10---------7-----------|
B|----7-(x8)---7-(x8)----7-(x8)------|
G|-----------------------------------|
D|-----------------------------------|(x6)
A|-----------------------------------|
E|-----------------------------------|
On the 7th time there is a bit of a variation  
so just listen to the CD and the rest is up to you.
            
Submit corrections



        Unsung Hero lessons Hard to play? Try these video lessons and learn fast Unsung Hero lessons
        
↑ Back to top | Tablatures and chords for acoustic guitar and electric guitar, ukulele, drums are parodies/interpretations of the original songs. You may use it for private study, scholarship, research or language learning purposes only