Home » O » One Direction »

One Direction - What Makes You Beautiful Tabs

Artists:  A B C D E F G H I J K L M N O P Q R S T U V W X Y Z # 

What Makes You Beautiful Tabs

(ver. 4) Click to play this song!
One Direction
Intro, Verse & Pre-chorus
e|----------------------------------------------|
b|----------------------------------------------|
g|----------------------------------------------|
d|-6---6----------------6---6-------------------|
a|-7---7-7---7/9--9-9-9-7---7-7---7/9-9-9-9-----|
e|-0---0-5---5/7--7-7-7-0---0-5---5/7-7-7-7-----| 

Verse vocals (Liam and Zayn's parts)
e|----------------------------------------------|
b|----------------------------------------------|
g|----------------------------------------------|
d|----------------------------------------------|
a|----------------------------------------------|
e|-0-0-0-0---0-0-0-0--0-0-0-0-0-0-0-0-0-2-4-2---|

Pre-chorus Vocals (Harry)
e|----------------------------------------------|
b|----------------------------------------------|
g|----------------------------------------------|
d|----------------------------------------------|
a|-----2-4-4-2---------------2-4-4-2------------|
e|-0-4---------4-4-4-2---0-4----------4-2-------|

Chorus is chords, E A and B, but here are the vocals. You play the whole tab, but then the last separated part
you play twice, as "You don't know you're beautiful" and "That's what makes you beautiful" are the same tabs
e|-------------------------------------------------------------------------------------|-------------------|
b|-------------------------------------------------------------------------------------|-------------------|
g|-------------------------------------------------------------------------------------|-------------------|x2
d|-------------------------------------------------------------------------------------|-------------------|
a|-------------------------------------------------------------------------------------|-------------------|
e|-4-2-0-0-0-0-0-0-0-2-4-2---4-2-0-0-0-0-0-0-0-2-4-2--4-2-0-0-0-0-0-0-4-2-2-4-2-0-2-4--|--4-4-4-4-4-2-0-2-4|
For the vocals, you can play the tab on whatever string you want, whichever suits you best. Just remember for
the pre-chorus since you use 2 strings that if you want to use the 3rd string-G, that when you move up to the 
b string for the 2-4-4-2 part, you change it to 3-5-5-3. Other than that, all is good. 

Bridge is the same as the chorus for vocals, (Harry's part)

the na na na na part is the same as the pre-chorus as well. No Capo, enjoy.


The strumming pattern for the chorus chorss if anybody was wondering goes

         E        A  A            B B  B
Baby you light up my world like nobody else,
             E        A    A            B B       B
The way that you flip your hair gets me overwhelmed,
             E        A   A               B  B        B
But when you smile at the ground it ain't hard to tell,
          E    
You don't know,
A   A
Oh, oh,
B   B                 B         E  A A
You don't know you're beautiful,
B      B              B
That's What makes you beautiful            
Submit corrections

↑ Back to top | Tablatures and chords for acoustic guitar and electric guitar, ukulele, drums are parodies/interpretations of the original songs. You may use it for private study, scholarship, research or language learning purposes only