Home » O » One Direction »

One Direction - Little Black Dress Bass

Artists:  A B C D E F G H I J K L M N O P Q R S T U V W X Y Z # 

Little Black Dress Bass

(ver. 1) Click to play this song!
One Direction
[Intro] 0:08
G|----------------|
D|----------------|
A|-----------~----|
E|--5-5~---5-5~---|
 
[Verse 1]
 
Little black dress just walked into the room...
G|---------------------------------------------------------------|
D|---------------------------------------------------------------|
A|---------------------------------------------------------------|
E|-0-0-0-0-0-0-0-0-0-0-0-0-0-0-0-0-0-0-0-0-0-0-0-0-0-0-0-0-0-0-0-|
 
It's alright...
G|-------------------|
D|-------------------|
A|-------------------|
E|-5-5-5-5-5-5-5-5-5-|
 
Little black dress, did you come here alone?...
G|---------------------------------------------------------------|
D|---------------------------------------------------------------|
A|---------------------------------------------------------------|
E|-0-0-0-0-0-0-0-0-0-0-0-0-0-0-0-0-0-0-0-0-0-0-0-0-0-0-0-0-0-0-0-|
 
It's alright...
G|-------------------|
D|-------------------| x2
A|-------------------|
E|-5-5-5-5-5-5-5-5-5-|
 
 
 
[Chorus]
 
I wanna see the way you move for me, baby...
G|------------------------|
D|------------------------| x3
A|--2-2-------------------|
E|------0-0--4-4--5-5-----|
 
 
 
[Verse 2]
 
Little black dress, who you doing it for?...
G|---------------------------------------------------------------|
D|---------------------------------------------------------------|
A|---------------------------------------------------------------|
E|-0-0-0-0-0-0-0-0-0-0-0-0-0-0-0-0-0-0-0-0-0-0-0-0-0-0-0-0-0-0-0-|
 
It's alright...
G|-------------------|
D|-------------------|
A|-------------------|
E|-5-5-5-5-5-5-5-5-5-|
 
Little black dress, what's your favorite song?...
G|---------------------------------------------------------------|
D|---------------------------------------------------------------|
A|---------------------------------------------------------------|
E|-0-0-0-0-0-0-0-0-0-0-0-0-0-0-0-0-0-0-0-0-0-0-0-0-0-0-0-0-0-0-0-|
 
It's alright...
G|-------------------|
D|-------------------| x2
A|-------------------|
E|-5-5-5-5-5-5-5-5-5-|
 
 
 
[Chorus: All]
 
I wanna see the way you move for me, baby...
G|------------------------|
D|------------------------| x3
A|--2-2-------------------|
E|------0-0--4-4--5-5-----|
 
 
 
[Guitar Solo]
 
G|---------------------------------------------------------------|
D|---------------------------------------------------------------|
A|---------------------------------------------------------------|
E|-0-0-0-0-0-0-0-0-0-0-0-0-0-0-0-0-0-0-0-0-0-0-0-0-0-0-0-0-0-0-0-|
 
G|---------------------------------------------------------------|
D|---------------------------------------------------------------|
A|---------------------------------------------------------------|
E|-5-5-5-5-5-5-5-5-5-5-5-5-5-5-5-5-5-5-5-5-5-5-5-5-5-5-5-5-5-5-5-|
 
 
 
 
[Chorus: All]
 
I wanna see the way you move for me, baby...
G|------------------------|
D|------------------------| x6
A|--2-2-------------------|
E|------0-0--4-4--5-5-----|
 
 
 
[Outro] 2:17
 
G|---------9~----------------------|
D|-------9-----7-7--7-7--7-7--7-7--|
A|---7-----------------------------|
E|-~-------------------------------|
            
Submit corrections

↑ Back to top | Tablatures and chords for acoustic guitar and electric guitar, ukulele, drums are parodies/interpretations of the original songs. You may use it for private study, scholarship, research or language learning purposes only