Home » O » One Direction »

One Direction - Little Black Dress Tabs

Artists:  A B C D E F G H I J K L M N O P Q R S T U V W X Y Z # 

Little Black Dress Tabs

(ver. 1) Click to play this song!
One Direction
Okay, so this song isn't very difficult, but it sounds awesome! It will sound best 
if you have a distortion effect. 

This tab isn't perfect, so if you see some room for improvement, please leave a comment!


Intro


e|----4-4-2-2-2-2-0-0-------------------------------------------------------|
B|----5-5-5-5-5-5-5-5--x2---------------------------------------------------|
G|----4-4-4-4-4-4-4-4-------------------------------------------------------|
D|------------------------------4h6-4/2-------------------------------------|
A|----------------------------0---------------------------------------------|
E|-0-------------------------------------0----------------------------------|

Verse:

Little black dress
Just walked into the room
Makin' heads turn
Can't stop looking at you
It's all right
It's all right
It's all right you know

e|----4-4-2-2-2-2-0-0--------------0-----0-----00---0--|
B|----5-5-5-5-5-5-5-5--x2----------2-----2-----22---2--|
G|----4-4-4-4-4-4-4-4----------x-x-2-x-x-2-x-x-22-x-2--|
D|-----------------------------x-x-2-x-x-2-x-x-22-x-2--|
A|-----------------------------x-x-0-x-x-0-x-x-00-x-0--|
E|-0---------------------------x-x---x-x---x-x----x----|

Little black dress
Did you come here alone?
It's too late
It's too late
It's too late to go home
It's all right
It's all right
It's all right you know
It's all right
It's all right
It's all right you know

CHORUS:

Riff:
e|----2-2/4-2-0-0-0-0--------|
B|-----------------2-2-0-----|
G|---------------------------|
D|---------------------------|
A|---------------------------|
E|---------------------------|

B                         A
I wanna see the way you move for me baby
B                          A
I wanna see the way you move for me baby
B                       A        E
I wanna see the way you move for me


Little black dress
Who you doin' it for?
Little black dress
I can't take anymore

It's not right
It's not right
It's not right you know


Little black dress
What's your favourite song?
Little black dress
I won't do you no harm


It's all right
It's all right
It's all right you know
It's all right
It's all right
Cause I'll take you home

CHORUS:
B                        A
I wanna see the way you move for me baby
B                         A
I wanna see the way you move for me baby
B                         A
I wanna see the way you move for me

Solo:

e|-/4------2------0-----0------2h4p2p0-----------------------|
B|-/5-x8---5-x8---5-x8--2--x8---------2-0--------------------|
G|-/4------4------4-----2----------------2-----x3------------|
D|----------------------------------------4-2----------------|
A|-----------------------------------------------------------|
E|-----------------------------------------------------------|

CHORUS X2
            
Submit corrections

↑ Back to top | Tablatures and chords for acoustic guitar and electric guitar, ukulele, drums are parodies/interpretations of the original songs. You may use it for private study, scholarship, research or language learning purposes only