Home » O » One Direction »

One Direction - Fireproof Tabs

Artists:  A B C D E F G H I J K L M N O P Q R S T U V W X Y Z # 

Fireproof Tabs

(ver. 2) Click to play this song!
One Direction
Tuning: Standard

Capo 1

 INTRO:
e|-------------------------0----------2------------------0-------------------|
B|------3----------3---------2-----------3-------3---------3-----------------|
G|---------2-2/4------0h2-------------------2p0-----0h2----------------------|
D|-0-0---------5-----------------0-0-----------------------------------------|
A|---------------------------------------------------------------------------|
E|---------------------------------------------------------------------------|

 Verse 1:

       I think I'm gonna lose my mind. Something deep inside me I can't give up.
e|-------------------------0-----------------------------0-------------------|
B|------3----------3---------2--------3----------3---------3-----------------|
G|---------2-2/4------0h2----------------2-2/4------0h2----------------------|
D|-0-0---------5-----------------0-0---------5-------------------------------|
A|---------------------------------------------------------------------------|
E|---------------------------------------------------------------------------|
     I think I'm gonna lose my mind, yeah I roll and I roll til I'm out of luck, and I 
roll and I roll til I'm out of luck.
e|-------------------------0------------------------------------------------------|
B|------3----------3---------2------3--2--------3--3-2------3--2--------3---------|
G|---------2-2/4---------------2--4------2-2h4---------2--4-------2-2h4-----------|
D|-0-0---------5------0h2---------------------------------------------------------|
A|--------------------------------------------------------------------------------|
E|--------------------------------------------------------------------------------|


REPEAT FOR NIALL'S VERSE, AS WELL AS LOUIS' VERSE!!!!!!!!!


 Chorus:

A              Bm                G   D A
 Cause nobody knows you baby the way I do.
            Bm                 G   D A
And nobody loves you baby, the way I do.
             A
It's been so long,
             Bm
it's been so long
            G  D A
maybe we're fireproof.
           Bm                 G   D   A
And nobody saves me baby, the way you do.


 Solo(you can either improvise, or play this)
e|---0-2-0--2--3-2-0--0--0-2--3-2-0------------------------3-7------------------3-7--|
B|--------3---------3--3--------------------------3-3--3h5---------------3--3h5------|
G|----------------------------------------2--2h4------------------2--2h4-------------|
D|-----------------------------------0h2---------------------0h2---------------------|
A|-----------------------------------------------------------------------------------|
E|-----------------------------------------------------------------------------------|

e|---------------------------------------------------------------------------|
B|--3-2----------------------------------------------------------------------|
G|------2--------------------------------------------------------------------|
D|--------2------------------------------------------------------------------|
A|---------------------------------------------------------------------------|
E|---------------------------------------------------------------------------|

Chorus:

A              Bm                G   D A
 Cause nobody knows you baby the way I do.
            Bm                 G   D A
And nobody loves you baby, the way I do.
             A
It's been so long,
             Bm
it's been so long
            G  D A
it must be, fireproof.
           Bm                 G   D   A
And nobody saves me baby, the way you do.


(softly strum)A              Bm                G   D A
               Cause nobody knows you baby the way I do.
            Bm                 G   D A
And nobody loves you baby, the way I do.
             A
It's been so long,
             Bm
it's been so long
            G  D A
maybe we're fireproof.
           Bm                 G   D   A
Cause nobody saves me baby, the way you do.


 Outro:
e|-----0h2--0----0h2------------------0--------------------------------------|
B|--3---------3-------3--------3--------2-----3-3----------------------------|
G|----------------------2-2/4-----0h2----------------------------------------|
D|--------------------------5-------------0-0--------------------------------|
A|---------------------------------------------------------------------------|
E|---------------------------------------------------------------------------|            
Submit corrections

↑ Back to top | Tablatures and chords for acoustic guitar and electric guitar, ukulele, drums are parodies/interpretations of the original songs. You may use it for private study, scholarship, research or language learning purposes only