» » »

Oi Polloi - Nazi Scum Tabs

Artists:  A B C D E F G H I J K L M N O P Q R S T U V W X Y Z # 

Nazi Scum Tabs

(ver. 1) Click to play this song!
Oi Polloi
 Rating:
4/5 (4 votes)
                My First Tab, any questions contact me on aim


Very simple...
Bass plays intro, then guitar comes in...

Intro/Verse

|--------------------------------------------|
|--------------------------------------------|
|--------------------------------------------|
|8-8-8/10/-11-11-11-11-----------------------|
|6-6-6/08/-09-09-09-09-8-8-8/10/-11-11-11-11-|
|----------------------6-6-6/08/-09-09-09-09-|


|--------------------------------------------|
|--------------------------------------------|
|--------------------------------------------|
|--------------------------------------------|
|10-10-10-13-13-13-13-13-8-8-8-8-8-8-8-8-----|
|08-08-08-11-11-11-11-11-6-6-6-6-6-6-6-6-----|

|--------------------------------------------|
|--------------------------------------------|
|--------------------------------------------|
|8-8-8/10/-11-11-11-11-----------------------|
|6-6-6/08/-09-09-09-09-8-8-8/10/-11-11-11-11-|
|----------------------6-6-6/08/-09-09-09-09-|


|--------------------------------------------|
|--------------------------------------------|
|--------------------------------------------|
|--------------------------------------------|
|10-10-------11-11-------8-8-----------------|
|08-08-------09-09-------6-6-----------------|

Chorus
|--------------------------------------------|
|--------------------------------------------|
|--------------------------------------------|
|10-10-10-10-------------10-10-10-10---------|
|08-08-08-08-10-10-10-10-08-08-08-08-8-8-8-8-|
|------------08-08-08-08-------------6-6-6-6-|

|--------------------------------------------|
|--------------------------------------------|
|--------------------------------------------|
|10-10-10-10-------------13/15\10------------|
|08-08-08-08-10-10-10-10-11/13\08------------|
|------------08-08-08-08---------------------|
            
Submit corrections

↑ Back to top | Tablatures and chords for acoustic guitar and electric guitar, ukulele, drums are parodies/interpretations of the original songs. You may use it for private study, scholarship, research or language learning purposes only