» » »

Oasis - Soldier On Bass

Artists:  A B C D E F G H I J K L M N O P Q R S T U V W X Y Z # 

Soldier On Bass

(ver. 1) Click to play this song!
Oasis
 Rating:
4/5 (4 votes)
    Soldier On lessons Tabs too difficult? Try these video lessons and learn fast
                

INTRO:

-------------------------------------|
--11/4---4---4----2-4--2-4---4-2---2-|
---------------------------------4---|
-------------------------------------|


----------------------------------|
--4---4---4----2-4--2-4---4-2---2-|
------------------------------4---| (repeat..)
----------------------------------|

VERSE:


[[   |----------------------------------|                                   
[[   |--4---4---4----2-4--2-4---4-2---2-|
[[   |------------------------------4---|
[[   |----------------------------------|

-6---6-----4-6--4-6----6|-4-----4----4-----2-4-2---4--4-2-----2-|
------------------------|----------------4------------------4---|
------------------------|---------------------------------------|
------------------------|---------------------------------------|

----------------------------------|  ]]
--4---4---4----2-4--2-4---4-2---2-|  ]]
------------------------------4---|  ]]  (x2)
----------------------------------|  ]]

--------------------|----------------------------------|
--6-6-6-6-6-6-6-6---|--4---4---4----2-4--2-4---4-2---2-|
--------------------|------------------------------4---|(repeat....)
--------------------|----------------------------------|

repeat VERSE

THEN:

-----------------------------------|
--4---4----4-----2-4-2-4----4-2---2|
---------------4----------------4--|(repeat, repeat, repeat...)
-----------------------------------|

soldier on.......soldier on....soldier on.....
            
Submit corrections

↑ Back to top | Tablatures and chords for acoustic guitar and electric guitar, ukulele, drums are parodies/interpretations of the original songs. You may use it for private study, scholarship, research or language learning purposes only