» » »

Nujabes - Lady Brown Tabs

Artists:  A B C D E F G H I J K L M N O P Q R S T U V W X Y Z # 

Lady Brown Tabs

(ver. 2) Click to play this song!
Nujabes
 Rating:
4/5 (4 votes)

 Lady Brown lessons Tabs too difficult? Try these video lessons and learn fast
 
                Intro (4x)
e|-3--2--0----8--7--5-------------3--2--0-----12-10------------------------|
B|--0--0--------------8--7--5------0--0-------------13-12-10---------------|
G|---0--0---------------------------0--0-----------------------------------|
D|-2--0---------------------------2--0-------------------------------------|
A|-------3------------------------------3----------------------------------|
E|-------------------------------------------------------------------------|


Verse (3x)
e|--3--5-5--7-7------------------------------12------------------------------|
B|-----------------8--10--8--10--10/12----10----10---------------------------|
G|-----------------9-------------------12------------------------------------|
D|---------------------------------------------------------------------------|
A|---------------------------------------------------------------------------|
E|---------------------------------------------------------------------------|

e|-5--7-7--8-8--10---10h12-----------------4h5-4h5---------------------------|
B|--------------------------10~~~~------------5------------------------------|
G|---------------------------------------------------------------------------|
D|---------------------------------------------------------------------------|
A|---------------------------------------------------------------------------|
E|---------------------------------------------------------------------------|

e|--3--5-5--7-7------------------------------12------------------------------|
B|-----------------8--10--8--10--10/12----10----10---------------------------|
G|-----------------9-------------------12------------------------------------|
D|---------------------------------------------------------------------------|
A|---------------------------------------------------------------------------|
E|---------------------------------------------------------------------------|

e|-10--8--------------------------------14----13-----------------------------|
B|---------/12---------------------------------------------------------------|
G|---9--9-----12----12----12~~~------12----12--------------------------------|
D|------------10-10----10----------------------------------------------------|
A|---------------------------------------------------------------------------|
E|---------------------------------------------------------------------------|


Chorus (2x)
e|-3--2--0----8--7--5-------------3--2--0-----12-10------------------------|
B|--0--0--------------8--7--5------0--0-------------13-12-10---------------|
G|---0--0---------------------------0--0-----------------------------------|
D|-2--0---------------------------2--0-------------------------------------|
A|-------3------------------------------3----------------------------------|
E|-------------------------------------------------------------------------|

Intro
Verse
Chorus
Verse
Chorus
Verse
Outro (same notes as Intro)            
Submit corrections


        Lady Brown lessons Hard to play? Try these video lessons and learn fast Lady Brown lessons
        
↑ Back to top | Tablatures and chords for acoustic guitar and electric guitar, ukulele, drums are parodies/interpretations of the original songs. You may use it for private study, scholarship, research or language learning purposes only