Home » N » Nujabes »

Nujabes - Lady Brown Bass

Artists:  A B C D E F G H I J K L M N O P Q R S T U V W X Y Z # 

Lady Brown Bass
Version #1
Nujabes


Copy URL
[Intro] (4x)

G|----------------------------|
D|14-12-10------14-12-10------|
A|-------------------------12-|
E|----------------------------|

(Played in tandem with guitar's first 3 chords)

[Verse 1] (2x)

G|--------------9--9--------9--|
D|10--10--9--9--------7-5h7----|
A|-----------------------------|
E|-----------------------------|

G|---9-----9---7--7---7-9-8-7--|
D|7-----7----7-----------------|
A|-----------------------------|
E|-----------------------------|

(Listen to get the feel for the timing, especially the last 4 notes)                      

G|--------------9--9--------9--|
D|10--10--9--9--------7-5h7----|
A|-----------------------------|
E|-----------------------------|

G|-----------------------------|
D|10--10--7--7--6--6--99--999--|
A|-----------------------------|
E|-----------------------------|

(The last notes are played relatively fast, might have to listen to get the feel again)

[Chorus] (4x)

G|--------------|
D|14-12-10------|
A|--------------|
E|--------------|

(Played with guitar like in the intro)

[Verse 2] (3x)

G|--------------9--9--------9--|
D|10--10--9--9--------7-5h7----|
A|-----------------------------|
E|-----------------------------|

G|---9-----9---7--7---7-9-8-7--|
D|7-----7----7-----------------|
A|-----------------------------|
E|-----------------------------|       

G|--------------9--9--------9--|
D|10--10--9--9--------7-5h7----|
A|-----------------------------|
E|-----------------------------|

G|-----------------------------|
D|10--10--7--7--6--6--99--999--|
A|-----------------------------|
E|-----------------------------|

[Chorus] (4x)

G|--------------|
D|14-12-10------|
A|--------------|
E|--------------|

[Verse 3] (2x)

G|--------------9--9--------9--|
D|10--10--9--9--------7-5h7----|
A|-----------------------------|
E|-----------------------------|

G|---9-----9---7--7---7-9-8-7--|
D|7-----7----7-----------------|
A|-----------------------------|
E|-----------------------------|       

G|--------------9--9--------9--|
D|10--10--9--9--------7-5h7----|
A|-----------------------------|
E|-----------------------------|

G|-----------------------------|
D|10--10--7--7--6--6--99--999--|
A|-----------------------------|
E|-----------------------------|

[Outro] (8x)

G|--------------|
D|14-12-10------|
A|--------------|
E|--------------|            
Submit corrections

↑ Back to top | Tablatures and chords for acoustic guitar and electric guitar, ukulele, drums are parodies/interpretations of the original songs. You may use it for private study, scholarship, research or language learning purposes only