» » »

Northstar - Broken Parachute Tabs

Artists:  A B C D E F G H I J K L M N O P Q R S T U V W X Y Z # 

Broken Parachute Tabs

(ver. 2) Click to play this song!
Northstar
 Rating:
4/5 (4 votes)

 Broken Parachute lessons Tabs too difficult? Try these video lessons and learn fast
 
                Intro:

E---------0----------------------------0-------------------]
B-----2-----2-2P0~-2P0H2-2---------2-----2-2----2---2/3/2--]
g----2-2-----2-------------2------2-2-----2----2--2--------]
D----------------------------2/4-------------0-------------]
A-0--------------------------------------------------------]
E----------------------------------------------------------]

2nd intro ending(not sure about it)

E-2~------------]
B-2~------------]
D-0~------------]

E-----------------------------------]
B-----------------------------------]
G-2-2-2222------------7-777777------]
D-2-2-2222-4-4-44444--7-777777------]
A-0-0-0000-4-4-44444--5-555555------]
E----------2-2-22222----------------]

E-------------------------------------]
B-------------------------------------]
G-2-2-2222------------7-777777/9------]
D-2-2-2222-4-4-44444--7-777777/X------]
A-0-0-0000-4-4-44444--5-555555/7------]
E----------2-2-22222------------------]

Verse:
One thousand feet...phere...light
E------------------------------------------]
B-2~---------------------------------------]
G-2~------------------------7~-------------]
D-2~----------------44------7~-------------]
A-0~----------------44------5~-------------]
E-------------------22---------------------]

  shrinking skin...worthless...beauty queens
E------------------------------------------------]
B------------------------------------------------]
G--2---------------------------7~----------------]
D--2--------------44-----------7~----------------]
A--0--------------44-----------5~----------------]
E-----------------22-----------------------------]

A million miles from the city...

E---------------------------------]
B-222222--------------------------]
G-222222------------7777777-------]
D-222222--4444444---7777777-------]
A---------4444444---5555555-------]
E---------2222222-----------------]

That is where...
E---------------------------------]
B-222222--------------------------]
G-222222------------7777777-------]
D-222222--4444444---7777777-------]
A---------4444444---5555555-------]
E---------2222222-----------------]

So take this gun...
E---------------------------------]
B-222222--------------------------]
G-222222------------7777777-------]
D-222222--4444444---7777777-------]
A---------4444444---5555555-------]
E---------2222222-----------------]

Mark the spot...
So take this gun...
E---------------------------------]
B-222222--------------------------]
G-222222------------7777777-------]
D-222222--4444444---7777777-------]
A---------4444444---5555555-------]
E---------2222222-----------------]
            
Submit corrections


        Broken Parachute lessons Hard to play? Try these video lessons and learn fast Broken Parachute lessons
        
↑ Back to top | Tablatures and chords for acoustic guitar and electric guitar, ukulele, drums are parodies/interpretations of the original songs. You may use it for private study, scholarship, research or language learning purposes only