» » »

Norma Jean - Shot Gun Message Tabs

Artists:  A B C D E F G H I J K L M N O P Q R S T U V W X Y Z # 

Shot Gun Message Tabs

(ver. 1) Click to play this song!
Norma Jean
 Rating:
4/5 (4 votes)

 Shot Gun Message lessons Tabs too difficult? Try these video lessons and learn fast
 
                Ok so this is the first song I've ever tried to tab on here, and I dont have my guitar on me, so I am just going to do it entirely by ear. The tuning is not a typo, that's how it actually is. You'll see why. This is all in order so play it as its written. Its a short song but has some spontaneous change ups, so I wrote a different measure for each one.



A# |-6-6-6----6-6-6
A# |-5-5-5----5-5-5
F# |------------------
C# |------------------       x4     
G# |------------------
C# |------------------


A# |-6---------6---------6-------6------6-------
A# |-5---------5---------5-------5------5-------
F# |-----------------------------------------------
C# |----------------------------------------------      x1
G# |-------0--------0---------0-----0----------0
C# |-------0--------0---------0-----0----------0


A# |---12--12--12--12--12
A# |---11--11--11--11--11
F# |--------------------------
C# |--------------------------     x1
G# |--------------------------
C# |--------------------------


A# |-------------12-12--------------------12-12------------------12-12------------------
A# |-------------11-11--------------------11-11------------------11-11------------------
F# |------------------------------------------------------------------------------------------
C# |------------------------------------------------------------------------------------------    x1
G# |-00000-------------------00000-----------------00000------------------3--6--5--2
C# |-00000-------------------00000-----------------00000------------------3--6--5--2



A# |-------------12-12----------------12-12-12-12-12-12
A# |-------------11-11----------------11-11-11-11-11-11
F# |-----------------------------------------------------------
C# |-----------------------------------------------------------      x1
G# |-00000---------------00000----------------------------
C# |-00000---------------00000----------------------------


A# |-------------12-12-----------------
A# |-------------11-11-----------------
F# |-------------------------------------
C# |-------------------------------------       x1
G# |-00000----------------3--6--5--2
C# |-00000----------------3--6--5--2


A# |-------------12-12--------------------12-12------------------12-12------------------
A# |-------------11-11--------------------11-11------------------11-11------------------
F# |------------------------------------------------------------------------------------------
C# |------------------------------------------------------------------------------------------     x2
G# |-00000-------------------00000-----------------00000------------------3--6--5--2
C# |-00000-------------------00000-----------------00000------------------3--6--5--2



A# |-----------------------------------------------------
A# |-----------------------------------------------------
F# |-----------------------------------------------------
C# |-----------------------------------------------------      x1
G# |-00000--------00000--------00000------00000
C# |-00000--------00000--------00000------00000


A# |----------------------------------------------------------
A# |----------------------------------------------------------
F# |----------------------------------------------------------
C# |---------------------------------------------------------      x1
G# |-00000--------00000--------00000------3--6--5--2
C# |-00000--------00000--------00000------3--6--5--2


A# |-------------                 ------------
A# |-------------                 ------------
F# |--17171717                16161616
C# |--x--x--x-x-      x7      -x--x-x--x-                 play whole thing  3 times
G# |-15151515                 14141414
C# |-------------                 ------------
       (strumming)

A# |-------------------------------------------------------------------------------------------------
A# |-------------------------------------------------------------------------------------------------
F# |-1717171717171717171717171717171718181818181818181919191919191919
C# |--x-x--x--x-x--x--x-x--x--x--x-x--x-x--x-x--x--x--x--x--x-x--x--x-x--x-x--x--x-x--x--x       x1
G# |-1515151515151515151515151515151516161616161616161717171717171717
C# |-------------------------------------------------------------------------------------------------
       (more strumming)

A# |-6-6-6----6-6-6
A# |-5-5-5----5-5-5
F# |------------------
C# |------------------       x4     
G# |------------------
C# |------------------


A# |-6---------6---------6-------6------6-------
A# |-5---------5---------5-------5------5-------
F# |-----------------------------------------------
C# |-----------------------------------------------      x1
G# |-------0--------0---------0-----0----------0
C# |-------0--------0---------0-----0----------0


A# |-6------6666
A# |-5------5555
F# |---------------
C# |---------------       x1    
G# |---------------
C# |---------------


A# |--------------------------------------------------------------
A# |------17----------17---------17-----------17-----------17
F# |--------x-----------x-----------x------------x-------------x-
C# |------15----------15---------15-----------15-----------15        x1
G# |-0----------0-----------0------------0------------0---------
C# |-0----------0-----------0------------0------------0---------
            
Submit corrections


        Shot Gun Message lessons Hard to play? Try these video lessons and learn fast Shot Gun Message lessons
        
↑ Back to top | Tablatures and chords for acoustic guitar and electric guitar, ukulele, drums are parodies/interpretations of the original songs. You may use it for private study, scholarship, research or language learning purposes only