» » »

Norma Jean - Lairsenic Tabs

Artists:  A B C D E F G H I J K L M N O P Q R S T U V W X Y Z # 

Lairsenic Tabs

(ver. 1) Click to play this song!
Norma Jean
 Rating:
4/5 (4 votes)

 Lairsenic lessons Tabs too difficult? Try these video lessons and learn fast
 
                Tuning: Db Ab Db Gb Bb B

INTRO
Guitar 1
b---------------------------------------------------------|
bb--------------------------------------------------------|
gb----/19-----18-----17-----------------------------------|
db------X------X------x-----------------------------------|
ab----/18-----17-----16-----------------------------------|
db--------------------------------------------------------|something along the lines of 
in different orders

VERSE
Both Guitars
eb-----------10---------------------1010------------------------|
bb-----------10---------------------1010------------------------|
gb--------------------------------------------------------------|
db--------------------------------------------------------------|
ab----1/8--------------1/8--8-----------------------------------|
db----1/8--------------1/8--8--------------------9-8-0-7-8------|

PRE-CHORUS
Both Guitars
eb------------------------|
bb------------------------|
gb------------------------|
db------------------------|
ab----1-0--3-0------------|
db----1-0--3-0--1-0-3-1-0-|

CHORUS
Both Guitars

eb-------------------------------------------------|
bb-------------------------------------------------|
gb-------------------------------------------------|
db------------9p8-0h8-8h9-9p8-0h8------------------|
ab----8880-----------------------------------------|
db----8880-----------------------------------------|


eb---------------------------------------|
bb---------------------------------------|
gb---------------------------------------|
db----------5555555555555----------------|
ab----8880--5555555555555----------------|
db----8880-------------------------------|


eb-------------------------------------------------|
bb-------------------------------------------------|
gb-------------------------------------------------|
db------------9p8-0h8-8h9-9p8-0h8------------------|
ab----8880-----------------------------------------|
db----8880-----------------------------------------|


eb-------------------------------------|
bb-------------------------------------|
gb-------------------------------------|
db-------------------------------------|
ab----8880--555555553333---------------|
db----8880--555555553333---------------|

eb--------------------------------------|
bb--------------------------------------|
gb--------------------------------------|
db------------9p8-0h8-8h9-9p8-0h8-------|
ab----8880------------------------------|
db----8880------------------------------|


eb---------------------------------------|
bb---------------------------------------|
gb----------7777777777777----------------|
db---------------------------------------|
ab----8880--5555555555555----------------|
db----8880-------------------------------|


eb--------------------------------------|
bb--------------------------------------|
gb--------------------------------------|
db------------9p8-0h8-8h9-9p8-0h8-------|
ab----8880------------------------------|
db----8880------------------------------|


eb-------------------------------------|
bb-------------------------------------|
gb-------------------------------------|
db-------------------------------------|
ab----8880--555555553333---------------|
db----8880--555555553333---------------|
INTERLUDE
Guitar 1

eb------------------------------------------------------|
bb------------------------------------------------------|
gb------------------------------------------------------|
db------------------------------------------------------|
ab--8880~-----5~---3~---8~----0~------------------------|
db--8880~-----5~---3~---8~----0~------------------------|

eb--------------------------------------------------------|
bb--------------------------------------------------------|
gb-----7~-----9~------12~----11~--------------------------|
db--------------------------------------------------------|
ab-----5~-----7~------10~-----9~--------------------------|
db--------------------------------------------------------|

eb---------------------------------------------------------------|
bb-0----------------------------------------------------------0--|
gb---------------------------------------------------------------|
db---------------------------------------------------------------|
ab--0----5~---3~---8~----0~-----------------------------------0--|
db-------5~---3~---8~----0~--------------------------------------|

eb-----------------------|
bb-----------------------|
gb----77--77--7777-------|
db-----------------------|
ab----55--55--5555-------|
db-----------------------|

Guitar 2

eb---------------------------------------------------------------|
bb---------------------------------------------------------------|
gb---------------------------------------------------------------|
db---------------------------------------------------------------|
ab---------------------------------------------------------------|
db----9--1-0--3-0--1-0-3-1-0-------------------------------------|

do verse again with double picking open d in between the slides

do chorus again

do post chorus again

BRIDGE
Guitar 1

eb---------------------------------------|
bb---------------------------------------|
gb---------------------------------------|
db---------------------------------------|
ab----000000005555555533333333388888888--|
db----000000005555555533333333388888888--|

Guitar 2

eb---------------------------------------------------------------------|
bb---------------------------------------------------------------------|
gb----1010101010101010-99999999-12121212121212-1414141414141414--------|
db---------------------------------------------------------------------|
ab-----8-8-8-8-8-8-8-8-77777777-10101010101010-1212121212121212--------|
db---------------------------------------------------------------------|

b---------------------------------------------------------|
bb--------------------------------------------------------|
gb----/19-----18-----17-----------------------------------|
db------X------X-------X----------------------------------|
ab----/18-----17-----16-----------------------------------|
db--------------------------------------------------------|same as the intro

eb---------------------------------------------------------|
bb---------------------------------------------------------|
gb---------------------------------------------------------|
db---------------------------------------------------------|
ab-----/9----5----9-----3------5---------------------------|
db-----/9----5----9-----3------5---------------------------|

eb-------------------------------------------------------------|
bb-------------------------------------------------------------|
gb-------------------------------------------------------------|
db-------------------------------------------------------------|
ab---0---1---0----3----0~--------------------------------------|
db---0---1---0----3----0~--------------------------------------|
            
Submit corrections


        Lairsenic lessons Hard to play? Try these video lessons and learn fast Lairsenic lessons
        
↑ Back to top | Tablatures and chords for acoustic guitar and electric guitar, ukulele, drums are parodies/interpretations of the original songs. You may use it for private study, scholarship, research or language learning purposes only