» » »

Norma Jean - High Noise Low Output Tabs

Artists:  A B C D E F G H I J K L M N O P Q R S T U V W X Y Z # 

High Noise Low Output Tabs

(ver. 2) Click to play this song!
Norma Jean
 Rating:
4/5 (4 votes)

 High Noise Low Output lessons Tabs too difficult? Try these video lessons and learn fast
 
                -----------------------------------------------------------------
High Noise Low Output - Norma Jean
-----------------------------------------------------------------
Tuning: Drop Db

Intro/Section 1
Guitar 1 (alone)
eb|-------------------------------------------------------------------|
Bb|-------------------------------------------------------------------|
Gb|-0-0-0-0----0-000-000-0-0----0-000-000-0-0--0--0--0-0-0-0-0-0-0-00-|
Db|-5-5-5-5b6--5-555-555-5-5b6--5-555-555-5-5/12-12-1212\8-8-8\3-3-33-|
Ab|-------------------------------------------------------------------|
Db|-------------------------------------------------------------------|

eb|-------------------------------|
Bb|-------------------------------|
Gb|-0-0-0--0--0--0-0-0-0-0-0-0-00-|
Db|-5-5-5/12-12-1212\8-8-8\3-3-33-|x3
Ab|-------------------------------|
Db|-------------------------------|

Section 2
Guitar 1
eb|----------------------------------------------------|
Bb|----------------------------------------------------|
Gb|--------------3-5-7-------------------3-5-7---------|
Db|-5-5-5-0---0--3-5-7-7--7--5-5-5-0--0--3-5-7-7-------|
Ab|-5-5-5-0---0--1-3-5-7--7--5-5-5-0--0--1-3-5-7-------|
Db|-5-5-5-0---0--------7--7--5-5-5-0--0--------7-------|

Guitar 2
eb|------------------------------------------------------|
Bb|------------------------------------------------------|
Gb|------------------------------------------------------|
Db|-5-5-5-0---0--8-8-8-4---4--5-5-5-0---0--8-8-8-4-xx-xx-|
Ab|-5-5-5-0---0--8-8-8-4---4--5-5-5-0---0--8-8-8-4-xx-xx-|
Db|-5-5-5-0---0--8-8-8-4---4--5-5-5-0---0--8-8-8-4-xx-xx-|

Guitar 1
eb|--------------------------------------------------------------------------|
Bb|--------------------------------------------------------------------------|
Gb|----------------5-7-----------------------5-7-----------------------------|
Db|-5-7-8-7b8r7--8-----7b8r7--5-7-8-7b8r7--8-----7--7--7--7--7-7-7-7-7-7-7-7-|
Ab|--------------------------------------------------------------------------|
Db|--------------------------------------------------------------------------|

Guitar 2
eb|--------------------------------------------------------------------------|
Bb|--------------------------------------------------------------------------|
Gb|--------------------------------------------------------------------------|
Db|-5-5-5-0---0--8-8-8-4---4--5-5-5-0---0--8-8-8-4--4--4--4--4-4-4-4-4-4-4-4-|
Ab|-5-5-5-0---0--8-8-8-4---4--5-5-5-0---0--8-8-8-4--4--4--4--4-4-4-4-4-4-4-4-|
Db|-5-5-5-0---0--8-8-8-4---4--5-5-5-0---0--8-8-8-4--4--4--4--4-4-4-4-4-4-4-4-|

Section 3
Guitar 1
eb|-----------------------------13-(x8)-13-(x24)-|
Bb|--------------11-(x7)\10-(x9)--------15-------|
Gb|----------------------------------------------|
Db|-8-(x7)\5-(x9)--------------------------------|
Ab|----------------------------------------------|
Db|----------------------------------------------|

Guitar 2 (continuously tremolos on this natural harmonic for the entire section)
eb|-15-15-15-15--|
Bb|------or------|
Gb|-<5><5><5><5>-|
Db|--------------|
Ab|--------------|
Db|--------------|

Section 4
Both Guitars
eb|----------------------------------------------------------------|
Bb|----------------------------------------------------------------|
Gb|----------------------------------------------------------------|
Db|-5--5-5-5-5-5-5--5--5-5--5-5-5-5--8-8-8-8-8-8-8-4--4-4--4-4-4-4-|x2
Ab|-x--x-x-x-x-x-x--x--x-x--x-x-x-x--x-x-x-x-x-x-x-x--x-x--x-x-x-x-|
Db|-5--5-5-5-5-5-5--5--5-5--5-5-5-5--8-8-8-8-8-8-8-4--4-4--4-4-4-4-|

Section 5
Guitar 1
eb|-------------------------------------------------------|
Bb|-------------------------------------------------------|
Gb|(1st-time)-3p0-7p0-5p0-2h333-3--3--10p0-8p0-7p0-5h777--|
Db|-(0)-1--1----------------------------------------------|x2
Ab|-(0)-1--1----------------------------------------------|
Db|-(0)-1--1----------------------------------------------|
     .

Guitar 2
eb|---------------------------------------------|
Bb|---------------------------------------------|
Gb|---------------3-3---------------------------|
Db|-(0)-1--1--1-1-----0-0-3h555-5--5--5/8---3---|x2
Ab|-(0)-1--1--------------------5--5--5/8---3---|
Db|-(0)-1--1--------------------5--5--5/8---3---|
     .

Both Guitars
eb|------------------------------------------|
Bb|------------------------------------------|
Gb|------------------------------------------|
Db|-1--1----------------------5--5--5/8--3---|
Ab|-1--1----------------------5--5--5/8--3---|
Db|-1--1--0-0-1-1-1-1-1/3-3-3-5--5--5/8--3---|

eb|-----------------------------------------------------------------------|
Bb|-----------------------------------------------------------------------|
Gb|-----------------------------------------------------------------------|
Db|-0-0-0-0-0-0-0-0-12-12-12-12-12-12-12-12-0-0-0-0-12-12-12-12--0-8--0-3-|
Ab|-0-0-0-0-0-0-0-0-12-12-12-12-12-12-12-12-0-0-0-0-12-12-12-12--0-8--0-3-|
Db|-0-0-0-0-0-0-0-0-12-12-12-12-12-12-12-12-0-0-0-0-12-12-12-12--0-8--0-3-|

Section 6
Both Guitars
eb|---------------------|
Bb|---------------------|
Gb|---------------------|
Db|-8--8-(8)-8-8-(8~)---|(1 guitar plays parentheses)
Ab|-5--5-(5)-5-5--------|
Db|-5--5-(5)-5-5--------|

For the short transition following this, one guitar holds the lone 8 above,
Accompanied by various harmonics in the background.

Section 3 (x1) + Guitar 2 ends with Ab|-/10\-|

Section 4 (x1) but replace 2nd bar with...
eb|----------------------------------------|
Bb|----------------------------------------|
Gb|----------------------------------------|
Db|-5--5-5-5-5-5-5--5--5-5--5-5-5-5--8\\\--|
Ab|-x--x-x-x-x-x-x--x--x-x--x-x-x-x--------|
Db|-5--5-5-5-5-5-5--5--5-5--5-5-5-5--8\\\--|

Section 5 (x1)

Transition
eb|-----|
Bb|-----|
Gb|-----|
Db|-5\--|
Ab|-5\--|
Db|-5\--|

Section 6
Guitar 1
eb|-----------------------------------|
Bb|-----------------------------------|
Gb|-0-------0--------0--------0-------|
Db|-5-(x16)-8-(x16)-13-(x16)-15-(x16)-|x4
Ab|-----------------------------------|
Db|-----------------------------------|

Guitar 2 (enters after 1st time of Guitar 1)
eb|------------------------------|------------------------------|
Bb|------------------------------|------------------------------|
Gb|------------------------------|------------------------------|
Db|-5\--5-5\--5-5\--5-5\--5-5-5\-|-5-8\--8-13\--13-15\--15-15\--|
Ab|-x---x-x---x-x---x-x---x-x-x--|-x-x---x--x----x--x----x--x---|
Db|-5\--5-5\--5-5\--5-5\--5-5-5\-|-5-8\--8-13\--13-15\--15-15\--|

Guitar 3 (enters at the bar line in Guitar 2 above)
eb|----------TP-|--------------------------------------------|
Bb|-(fade-in)-8-|-8-888-8-15-151515-15-11-111111-11-6-666-6--|
Gb|-------------|--------------------------------------------|
Db|-------------|--------------------------------------------|x4
Ab|-------------|--------------------------------------------|
Db|-------------|--------------------------------------------|

Guitar 2 
eb|---------------------------------------------------------------------|
Bb|---------------------------------------------------------------------|
Gb|---------------------------------------------------------------------|
Db|-5-555-5-5-5-5-5--8-888-8-888-8-8--13-131313-13-131313-13-13--15b17--|
Ab|-x-xxx-x-x-x-x-x--x-xxx-x-xxx-x-x---x--x-x-x--x--x-x-x--x--x---x--x--|
Db|-5-555-5-5-5-5-5--8-888-8-888-8-8--13-131313-13-131313-13-13--15b17--|

Section 7
Both Guitars
eb|---------------------------------------------------------|
Bb|---------------------------------------------------------|
Gb|---------------------------------------------------------|
Db|-5-5\-xxxxx-/5-5\-xxxxxxxxxx-5-5\-xxxxx-/5-5\-xxxxxxxxxx-|
Ab|-x-x--xxxxx--x-x--xxxxxxxxxx-x-x--xxxxx--x-x--xxxxxxxxxx-|
Db|-5-5\-xxxxx-/5-5\-xxxxxxxxxx-5-5\-xxxxx-/5-5\-xxxxxxxxxx-|

Section 5 (x1)

Transition
eb|----------------------|
Bb|----------------------|
Gb|----------------------|
Db|-8--8--8--8-8--8--8-8-|
Ab|-5--5--5--5-5--5--5-5-|
Db|-5--5--5--5-5--5--5-5-|

Section 2 (x1)

Outro
eb|-------------------------------------------|
Bb|-------------------------------------------|
Gb|-------------------------------------------|
Db|-8--8--8--8-8--8--8-8--8--8--8-8--8--8-8\--|
Ab|-5--5--5--5-5--5--5-5--5--5--5-5--5--5-5\--|
Db|-5--5--5--5-5--5--5-5--5--5--5-5--5--5-5\--|

Guitar 1 plays the above while Guitar 2 plays the same notes on a straight
quarter note rhythm.

That is all
Please rate & comment.
Thanks,
millarso
            
Submit corrections


        High Noise Low Output lessons Hard to play? Try these video lessons and learn fast High Noise Low Output lessons
        
↑ Back to top | Tablatures and chords for acoustic guitar and electric guitar, ukulele, drums are parodies/interpretations of the original songs. You may use it for private study, scholarship, research or language learning purposes only