» » »

Norma Jean - Death Of The Anti Mother Tabs

Artists:  A B C D E F G H I J K L M N O P Q R S T U V W X Y Z # 

Death Of The Anti Mother Tabs

(ver. 3) Click to play this song!
Norma Jean
 Rating:
4.3/5 (18 votes)

 Death Of The Anti Mother lessons Tabs too difficult? Try these video lessons and learn fast
 
                SECTION 1
Guitar 1
C#|-----------------------------------------------------------|
G#|-----------------------------------------------------------|
E |-----------------------------------0-----------------------|
B |----7---5----3--------7---5------3---3---3----7/10--5----3-|
F#|----8---6----5--------8---6----5-------5------8/11--6----5-|
B |-0---------0-------0---------0-------------0-----------0---|

Guitar 1
C#|------------------------------------------------------------------------|
G#|------------------------------------------------------------------------|
E |-----------------0-----------------------0----------------------0-------|
B |----7---5------3---3---3----7---5------3---3---3--------------3---3---3-|
F#|----8---6----5-------5------8---6----5-------5-----8---6----5-------5---|
B |-0---------0-------------0---------0-------------0--------0-------------|
||                                                                         |
Guitar 2                                                                   |
C#|------------------------------------------------------------------------|
G#|-------------------4----------------------------------------------4-4---|
E |-----------------5----5------------------0----------------------5-----5-|
B |------------------------------------------------------------------------|
F#|------------------------------------------------------------------------|
B |------------------------------------------------------------------------|

Guitar 1
C#|-----------------------------------------------------------------------------------------|
G#|-----------------------------------------------------------------------------------------|
E |-------------------0-------------------------------------0-----------------------0-------|
B |----7/10--5------3---3---3------------------7---5------3---3---3----7---5------3---3---3-|
F#|----8/11--6----5-------5--------------------8---6----5-------5------8---6----5-------5---|
B |-0-----------0-------------0--------3/6--0---------0-------------0---------0-------------|
||                                                                                          |
Guitar 2                                                                                    |
C#|-----------------------------------------------------------------------------------------|
G#|-----------------------------------------------------------4-4---------------------------|
E |-------------------0-------------------------------------5-----5-----------------0-------|
B |-----------------------------------------------------------------------------------------|
F#|-----------------------------------------------------------------------------------------|
B |-----------------------------------------------------------------------------------------|

Guitar 1
C#|------------------------------------------------------------------------------|
G#|------------------------------------------------------------------------------|
E |-----------------0------------------------------------------------------------|
B |----7---5------3---3---3----7---5----3--------3-3-3-3-3-3-3-3-3-3-3-3-3-3-3-3-|
F#|----8---6----5-------5------8---6----5--------5-5-5-5-5-5-5-5-5-5-5-5-5-5-5-5-|
B |-0---------0-------------0---------0------------------------------------------|
||                                                                               |
Guitar 2                                                                         | 
C#|------------------------------------------------------------------------------|
G#|-------------------4-4--------------------------------------------------------|
E |-----------------5-----5------------------------------------------------------|
B |------------------------------------------------------------------------------|
F#|------------------------------------------------------------------------------|
B |------------------------------------------------------------------------------|

SECTION 2
Both Guitars
C#|----------------------------------------------------------------------------------------|
G#|----------------6-6/8-6---------------------6-8-6h8p6----------------------6-6/8-6------|
E |------------------------7/10--------------------------7/10-------------------------7/10-|
B |-0---3---1--0-0--------------0---3---1--0-0----------------0---3/6--1--0-0--------------|
F#|-0---x---x--0-0--------------0---x---x--0-0----------------0---x----x--0-0--------------|
B |-0---3---1--0-0--------------0---3---1--0-0----------------0---3/6--1--0-0--------------|

Guitar 1
C#|--------------------------|
G#|--------------------------|
E |------------------6b------|
B |-0---3---1--0-0-0-6b------|
F#|-0---x---x--0-0-0-4b------|
B |-0---3---1--0-0-0---------|
||                           |
Guitar 2                     |
C#|--------------------------|
G#|--------------------------|
E |------------------6-6-6-6-|
B |-0---3---1--0-0-0-6-6-6-6-|
F#|-0---x---x--0-0-0-4-4-4-4-|
B |-0---3---1--0-0-0---------|

SECTION 3
Both Guitars
C#|-------------------------------|
G#|-------------------------------|
E |-------------------------------|
B |-0---3/6--1--0-0-8/11-11-11-11-|x3
F#|-0---3/6--1--0-0-8/11-11-11-11-|
B |-0---3/6--1--0-0-8/11-11-11-11-|

C#|-------------------------------------------------------------------|
G#|-------------------------------------------------------------------|
E |-------------------------------------------------------------------|
B |-0---3/6--1--0-0-8/11-11-11-11-11-11-11-11-11-11-11-11-11-11-11-11-|
F#|-0---3/6--1--0-0-8/11-11-11-11-11-11-11-11-11-11-11-11-11-11-11-11-|
B |-0---3/6--1--0-0-8/11-11-11-11-11-11-11-11-11-11-11-11-11-11-11-11-|

TRANSITION
Guitar 1
C#|------------------------------|
G#|------------------------------|
E |------------------------------|
B |----------------------3-6-(0)-|
F#|-----5-3-5---3-5-3-6--3-6-(0)-|
B |-0--------------------3-6-(0)-|
||                               |
Guitar 2                         |
C#|------------------------------|
G#|------------------------------|
E |------------------------------|
B |----------------------3-6-(0)-|
F#|----------------------3-6-(0)-|
B |-12-------------------3-6-(0)-|

SECTION 4
Both Guitars
C#|-------------------------------------------------------------------|
G#|-------------------------------------------------------------------|
E |-------------------------------------------------------------------|
B |-0---12-10-12---10-12-10-13---3-6-0---12-10-12---10-12-10-13---3-6-|
F#|-0---12-10-12---10-12-10-13---3-6-0---12-10-12---10-12-10-13---3-6-|
B |-0---12-10-12---10-12-10-13---3-6-0---12-10-12---10-12-10-13---3-6-|

C#|---------------------------------------------------------------------|
G#|---------------------------------------------------------------------|
E |---------------------------------------------------------------------|
B |-0-------12-10-12---10-12-10-13--3-6-0---12-10-12---10-12-10-13--3-6-|
F#|-0-0-0-0-12-10-12---10-12-10-13--3-6-0---12-10-12---10-12-10-13--3-6-|
B |-0-0-0-0-12-10-12---10-12-10-13--3-6-0---12-10-12---10-12-10-13--3-6-|
      . . .

An extra guitar plays this over top of the 2nd guitar channel...
C#|----10-----10-----10-----10----------------------|
G#|-10-----10-----10-----10-------------------------|
E |-------------------------------------------------|
B |-------------------------------------------------|
F#|-------------------------------------------------|
B |-------------------------------------------------|
... and continues that through SECTION 4, sliding down on the last note

TRANSITION 2
Both Guitars
C#|------------|
G#|------------|
E |------------|
B |-6--0--6--6-|
F#|-x--0--x--x-|
B |-6--0--6--6-|

SECTION 5
Both Guitars
C#|------------------------------|
G#|------------------------------|
E |------------------------------|
B |---------6-------6------6---6-|x3
F#|-0-0-0-0-x-0-0-0-x--0-0-x-0-x-|
B |-0-0-0-0-6-0-0-0-6--0-0-6-0-6-|
    . . . .   . . .    . .   .

C#|-------------------|
G#|-------------------|
E |-------------------|
B |---------6---------|
F#|-0-0-0-0-x-0-0-0---|
B |-0-0-0-0-6-0-0-0-0-|
    . . . .   . . .

SECTION 6
Guitar 1
C#|----5----------------------5------------------------------------------------------------------|
G#|-/6----8-----6-8-6---6--/6----8-----6-8-6---6-------------------------------------------------|
E |-------8---7-------7----------8---7-------7-------------------0-----------------------0-------|
B |--------------------------------------------------7--5------3---3---3-----7--5------3---3---3-|
F#|------------------------------------------------8----6----5-------5-----8----6----5-------5---|
B |----------------------------------------------0---------0-------------0---------0-------------|
||
Guitar 2 (pretty much just back and forth between these notes)
C#|----10-----10-|
G#|-10-----10----|
E |--------------|
B |--------------|
F#|--------------|
B |--------------|

SECTION 7
Both Guitars
C#|-------------------------------------|
G#|-------------------------------------|
E |-------------------------------------|
B |---------3-3-3-1-1-0-0-8/11-11-11-11-|x3
F#|-0-0-0-0-3-3-3-1-1-0-0-8/11-11-11-11-|
B |-0-0-0-0-3-3-3-1-1-0-0-8/11-11-11-11-|
    . . . .

C#|--------------------------------------------|
G#|--------------------------------------------|
E |----------------------------------/18-------|
B |---------3-3-3-1-1-0-0-8/11---------x-(x16)-|
F#|-0-0-0-0-3-3-3-1-1-0-0-8/11-(x16)-/16-------|
B |-0-0-0-0-3-3-3-1-1-0-0-8/11-----------------|
    . . . .

REPEAT SECTION 4

SECTION 8
Both Guitars
C#|------------------------------------------------|
G#|------------------------------------------------|
E |------------------------------------------------|
B |-0---3-6-0---------3--6--0---3-6-0---------3--6-|
F#|-0---3-6-0---0-0-0-3--6--0---3-6-0---0-0-0-3--6-|
B |-0---3-6-0---0-0-0-3--6--0---3-6-0---0-0-0-3--6-|
||              . . .                   . . .      |
Extra Guitar (all tremolo picking)                 |
C#|------------------------------------------------|
G#|------------------------------------------------|
E |-19---------------------16---------------11--12-|
B |--x----------------------x----------------x---x-|
F#|-17---------------------13----------------9--10-|
B |------------------------------------------------|

Both Guitars
C#|--------------------------------------------------------|
G#|--------------------------------------------------------|
E |--------------------------------------------------------|
B |-0-------3-6-0---------3--6--0-------3-6-0---------3--6-|
F#|-0-0-0-0-3-6-0---0-0-0-3--6--0-0-0-0-3-6-0---0-0-0-3--6-|
B |-0-0-0-0-3-6-0---0-0-0-3--6--0-0-0-0-3-6-0---0-0-0-3--6-|
||    . . .         . . .         . . .         . . .      |
Extra Guitar (all tremolo picking)                         |
C#|--------------------------------------------------------|
G#|--------------------------------------------------------|
E |-7---------------------------4--------------------------|
B |-x---------------------------x--------------------------|
F#|-5---------------------------1--------------------------|
B |--------------------------------------------------------|

SECTION 9
Guitar 1
C#|-----------------------------|
G#|-----------------------------|
E |-----------------------------|
B |-0-----------0---------------|x3
F#|-0-0-0-0-----0---0-0-0-------|
B |-0-0-0-0-3/6-0---0-0-0-3-/6~-|
||    . . .         . . .       |
Guitar 2                        |
C#|-----------------------------|
G#|-----------------------------|
E |-----------------------------|
B |-0-----------0---------------|x3
F#|-0-0-0-0-----0---0-0-0-------|
B |-0-0-0-0-----0---0-0-0-------|
      . . .        . . .

Guitar 1
C#|--------------------------|
G#|--------------------------|
E |--------------------------|
B |-0-----------0------------|
F#|-0-0-0-0-----0---0-0-0----|
B |-0-0-0-0-3/6-0---0-0-0-3b-|
||    . . .         . . .    |
Guitar 2                     |
C#|--------------------------|
G#|--------------------------|
E |--------------------------|
B |-0-----------0------------|
F#|-0-0-0-0-----0---0-0-0----|
B |-0-0-0-0-----0---0-0-0----|
      . . .        . . .

SECTION 10
Both Guitars
C#|-----------------------------|
G#|-----------------------------|
E |-----------------------------|
B |-0-------3/6-0---------------|x3
F#|-0-0-0-0-3/6-0---0-0-0-------|
B |-0-0-0-0-3/6-0---0-0-0-3-/6~-|
      . . .         . . .       

C#|-----------------------------|
G#|-----------------------------|
E |-----------------------------|
B |-0-------3/6-0---------3-----|
F#|-0-0-0-0-3/6-0---0-0-0-3-----|
B |-0-0-0-0-3/6-0---0-0-0-3--6~-|
      . . .         . . .

C#|----------------------------------------------------------------|
G#|----------------------------------------------------------------|
E |----------------------------------------------------------------|
B |-0-----------0-------------0-----------0------------------------|
F#|-0-0-0-0-----0---0-0-0-----0-0-0-0-----0-(whammy-down)--0--0--0-|
B |-0-0-0-0-----0---0-0-0-----0-0-0-0-----0----------------0--0--0-|
            
Submit corrections


        Death Of The Anti Mother lessons Hard to play? Try these video lessons and learn fast Death Of The Anti Mother lessons
        
↑ Back to top | Tablatures and chords for acoustic guitar and electric guitar, ukulele, drums are parodies/interpretations of the original songs. You may use it for private study, scholarship, research or language learning purposes only