» » »

No Cash - Run Your Pockets Tabs

Artists:  A B C D E F G H I J K L M N O P Q R S T U V W X Y Z # 

Run Your Pockets Tabs

(ver. 2) Click to play this song!
No Cash
 Rating:
4/5 (4 votes)

 Run Your Pockets lessons Tabs too difficult? Try these video lessons and learn fast
 
                
Band: No-Cash


OK, so i was over at my drummers house one day after we played a show and he hands me 
cd.
He starts telling me that this is the best band he's ever heard, and thats there so awsome
and talented. He was drunk at the time so i thought he was just handing me bullsh!t, but i
took the cd anyways. So i went home the next day and listened to it, and i was blown away.
No-Cash is friggin awsome! Great use of both guitars, and i love the piano they encorperate.
This song stuck in my head the most cause its the last song on the album and therefore the
last song i heard, so i decided to figure out how to play it and tab it. Ok, so most of the
tab is pretty basic and standard, nothing much. At the end for the outro though (friggin so
many parts to the outro!), theres 3 guitars, so if your in a abdn with two, just take out
guitar 1 or 2. Enjoy!

TUNING - Standard (e-B-G-D-A-E)

LEGEND
* = play 4 times
! = play 8 times
# = play 16 times
+ = pinch harmonic
~ = fade out


INTRO

Guitar 1 (clean tone)
e|---------|
B|-5-------|
G|-----4---|
D|-------2-|
A|---------|
E|---------|

Guitar 2 (clean tone)
e|---            |-7----4*---7*---5*-|
B|-9-            |-9*---5*---7*---5*-|
G|-9- a couple   |-9*---6*---8*---6*-| X2
D|-9- bars, then |-9*---6*---9*---7*-|
A|-7-            |-7*---4*---9*---7*-|
E|---            |-----------7*---5*-|

VERSE

Guitar 1
e|-------------------------------------|
B|-------------------------------------|
G|-6*--8*--9*--11*--16*--14*--13*--11*-| X4
D|-x---x---x----x----x----x----x----x--|
A|-4*--6*--7*---9*--14*--12*--11*---9*-|
E|-------------------------------------|

Guitar 2
e|-----------------------------------|
B|-----------------------------------|
G|-6*--8*--9*--11*--13*--11*--9*--8*-| X4
D|-x---x---x----x----x----x---x---x--|
A|-4*--6*--7*---9*--11*---9*--7*--6*-|
E|-----------------------------------|

CHORUS

Guitar 1
e|----------------------------------|
B|----------------------------------|
G|-9*--8*--9*--8*--13*--9*--11*--8*-| X2
D|-x---x---x---x----x---x----x---x--|
A|-7*--6*--7*--6*--11*--7*---9*--6*-|
E|----------------------------------|

Guitar 2
e|--------------------------------|
B|--------------------------------|
G|-6*--------------6*-------------| X2
D|-6*--6*--7*--6*--6*--6*--7*--6*-|
A|-4*--6*--7*--6*--4*--6*--7*--6*-|
E|-----4*--5*--4*------4*--5*--4*-|

MAIN BRIDGE
Guitar 1
e|-----------------------------------------------|
B|-----------------------------------------------|
G|-6-6--x-x---x--8---9-11-------x-x---x--9---8-4-|
D|-6-6--x-x---x--x---x--x--7-7--x-x---x--x---x-x-|
A|-4-4--x-x---x--6---7--9--7-7--x-x---x--7---6-2-|
E|------x-x---x------------5-5--x-x---x----------|

Guitar 2
e|-----------------------------------------------|
B|-----------------------------------------------|
G|-6-6-6-6-6-6-6-8---9-11----------------9---8-4-|
D|-x-x-x-x-x-x-x-x---x--x--7-7-7-7-7-7-7-x---x-x-|
A|-4-4-4-4-4-4-4-6---7--9--x-x-x-x-x-x-x-7---6-2-|
E|-------------------------5-5-5-5-5-5-5---------|

INTERLUDE
Guitar 1
e|----------------------------|
B|----------------------------|
G|-9!------6!-----------------| X2
D|-x-------x-------9!------7!-|
A|-7!------4!------x-------x--|
E|-----------------7!------5!-|

Guitar 2
e|-0!------0!------0!------0!-|
B|-0!------5!------0!------0!-|
G|-9!------6!------8!------6!-| X2
D|-9!------6!------9!------7!-|
A|-7!------4!------9!------7!-|
E|-----------------7!------5!-|

(play MAIN BRIDGE again)

OFF-BRIDGE
Guitar 1
e|------------------------------------|
B|------------------------------------|
G|----------------------------9-9-9-8-|
D|----------------------------9-9-9-8-|
A|----------------------------7-7-7-6-|
E|------------------------------------|

Guitar 2
e|------------------------------------|
B|------------------------------------|
G|-6*--8*--9*--11*--13*--11*--9-9-9-8-|
D|-x---x---x----x----x----x---x-x-x-x-|
A|-4*--6*--7*---9*--11*---9*--7-7-7-6-|
E|------------------------------------|

(play VERSE again, but only play it 2X instead of 4X)


FILL
Guitar 1
e|-------------------------------|
B|-14-12----12-------------------|
G|-------14----14-13-14-13-11-13-|
D|-------------------------------|
A|-------------------------------|
E|-------------------------------|

Guitar 2
e|----------------------|
B|----------------------|
G|----------------------|
D|-11-9-7-9-7-6-7-6-4-6-|
A|--x-x-x-x-x-x-x-x-x-x-|
E|--9-7-5-7-5-4-5-4-2-4-|


(play CHORUS again)


(play MAIN BRIDGE again)


OUTRO PT.1
Guitar 1
e|----
B|----
G|-9+- (let note ring
D|----  and fade out)
A|----
E|----

Guitar 2 (clean tone)
e|--------------------------------------------------|
B|--------------------------------------------------|
G|-9----9-------6----6------------------------------| X2
D|--------9------------6-----9----9------7----7-----|
A|----7-----7------4-----4----------9-----------7---|
E|-----------------------------7------7-----5-----5-|


OUTRO PT.2
Guitar 1
(comes in at the end of this part, listen for when)
e|-----------------------------------|
B|-----------------------------------|
G|-----------------------------------|
D|-7-7-7-7-7-7-7-7-7-7-7-7-7-7-7-7-7-|
A|-7-7-7-7-7-7-7-7-7-7-7-7-7-7-7-7-7-|
E|-5-5-5-5-5-5-5-5-5-5-5-5-5-5-5-5-5-|
pm   . . . . . . . . . . . . . . . .

Guitar 2 (clean tone)
e|----------------------4------------7------------5---|
B|-9*------9----5*----5---5--------7---7--------5---5-|
G|-9*----9---9--6*--6--------8*--8--------6*--6-------| X2, but second time
D|-9*--9--------6*-----------9*-----------7*----------|     hold last chord
A|-7*-----------4*-----------9*-----------7*----------|     twice as long
E|---------------------------7*-----------5*----------|


OUTRO PT.3
Guitar 1
e|--------------------------------------------|
B|--------------------------------------------|
G|-9#------6#---------------------------------|
D|-9#------6#------9#------7!---7-7-7-7-7-7-7-|
A|-7#------4#------9#------7!---7-7-7-7-7-7-7-|
E|-----------------7#------5!---5-5-5-5-5-5-5-|
pm                              . . . . . . .

Guitar 2 (clean tone)
e|---------4#------7#------5#------|
B|-9#------5#------7#------5#------|
G|-9#------6#------8#------6#------|
D|-9#------6#------9#------7#------|
A|-7#------4#------9#------7#------|
E|-----------------7#------5#------|

OUTRO Pt.4
Guitar 1
e|---------------------------------|
B|---------------------------------|
G|-9#------6#----------------------|
D|-9#------6#------9#------7#------|
A|-7#------4#------9#------7#------|
E|-----------------7#------5#------|

Guitar 2 (clean tone)
e|---------4#------7#------5#------|
B|-9#------5#------7#------5#------|
G|-9#------6#------8#------6#------|
D|-9#------6#------9#------7#------|
A|-7#------4#------9#------7#------|
E|-----------------7#------5#------|

Guitar 3
e|-12---------12---------12---14----12----------12---14----12---14----12---14----12---14----|
B|----9-10-12----9-10-12----9----12----9-10-12-----9----12----9----12----9----12----9----12-|

X2
D|------------------------------------------------------------------------------------------|
A|------------------------------------------------------------------------------------------|
E|------------------------------------------------------------------------------------------|


OUTRO PT.5
Guitar 1
e|------------------------------------------------------------------------------------------|
B|------------------------------------------------------------------------------------------|
G|-9--9-9-9--9--9-9--9--9-9-9--9--9-9--9--9--9--6--6-6-6--6--6-6--6--6-6-6--6--6-6--6--6--6-|
D|-9--9-9-9--9--9-9--9--9-9-9--9--9-9--9--9--9--6--6-6-6--6--6-6--6--6-6-6--6--6-6--6--6--6-|
A|-7--7-7-7--7--7-7--7--7-7-7--7--7-7--7--7--7--4--4-4-4--4--4-4--4--4-4-4--4--4-4--4--4--4-|
E|------------------------------------------------------------------------------------------|
pm    . . .     . .     . . .     . .     .        . . .     . .     . . .     . .     .

Guitar 1 cont'd
e|------------------------------------------------------------------------------------------|
B|------------------------------------------------------------------------------------------|
G|------------------------------------------------------------------------------------------|
D|-9--9-9-9--9--9-9--9--9-9-9--9--9-9--9--9--9--7--7-7-7--7--7-7--7--7-7-7--7--7-7--7--7--7-|
A|-9--9-9-9--9--9-9--9--9-9-9--9--9-9--9--9--9--7--7-7-7--7--7-7--7--7-7-7--7--7-7--7--7--7-|
E|-7--7-7-7--7--7-7--7--7-7-7--7--7-7--7--7--7--5--5-5-5--5--5-5--5--5-5-5--5--5-5--5--5--5-|
pm    . . .     . .     . . .     . .     .        . . .     . .     . . .     . .     .

Guitar 2 (clean tone)
e|---------4#------7#------5#------|
B|-9#------5#------7#------5#------|
G|-9#------6#------8#------6#------|
D|-9#------6#------9#------7#------|
A|-7#------4#------9#------7#------|
E|-----------------7#------5#------|

Guitar 3
e|-12---------          |-----------          |-----------|
B|----9-10-12-          |-12-7-9-10-          |-12------9-|
G|------------ X4, then |----------- X4, then |----9-11---| X4, then
D|------------          |-----------          |-----------|
A|------------          |-----------          |-----------|
E|------------          |-----------          |-----------|

Guitar 3 cont'd
e|------12~--------14----16----17----16----|
B|-12-----------12----12----12----12----12-|
G|----9------------------------------------|
D|-----------------------------------------|
A|-----------------------------------------|
E|-----------------------------------------|

END NOTE
Guitar 1
e|----
B|----
G|-9~-
D|-9~-
A|-7~-
E|----

Guitar 2 (clean tone)
e|----
B|-9~-
G|-9~-
D|-9~-
A|-7~-
E|----

Guitar 3
e|-12~-
B|-----
G|-----
D|-----
A|-----
E|-----


And there you go! the outro has alot of parts, but they're pretty similar. So just do
what you can with it. It's all accurate, the only thing im not sure about is the lead
guitar 3 has on the outro. Those are all the right notes, but it changes up the pattern
a bit throughout, and that was the closest i got. It sounds right, and its in the right
key, so don't worry about it. Any questions, comments, or corrections, e-mail me at
I dont take requests for tabs, so only e-mail me if u have questions, comments or
corrections. Thank you

PS - the sound bite at the beginning of the song is taken from the movie 'Donnie Darko',
     which is my favourite movie of all time. I suggest you go out and watch it if you
     haven't seen it yet! And if you have, then watch it again, or Frank will come visit
     you ;)
            
Submit corrections


        Run Your Pockets lessons Hard to play? Try these video lessons and learn fast Run Your Pockets lessons
        
↑ Back to top | Tablatures and chords for acoustic guitar and electric guitar, ukulele, drums are parodies/interpretations of the original songs. You may use it for private study, scholarship, research or language learning purposes only