» » »

No Cash - Pierce The Gates Tabs

Artists:  A B C D E F G H I J K L M N O P Q R S T U V W X Y Z # 

Pierce The Gates Tabs

(ver. 1) Click to play this song!
No Cash
 Rating:
4/5 (5 votes)

 Pierce The Gates lessons Tabs too difficult? Try these video lessons and learn fast
 
                -----------------------------------------------------------------------------
-----------------------------------------------------------------------------

Tuning: Standard

(Intro)
e|---------------------------------------------------------------------------|
B|---------------------------------------------------------------------------|
G|-2------------------2-------------------------------------2----------------|
D|-2---------2--------2---------2-------3---------2---------2----------------|
A|-0--5-3-0----3-5----0--5-3-0----3-5---3--5-3-0--2--2-3-2--0--5-3-0---------|
E|-----------------0------------------0-1---------0--------------------------|

e|-------------|
B|-------------|
G|-------------|
D|-------------|
A|---7+6+5+4+--|
E|-------------|

The Verse is just an upstroked Am, E, Am, E, Fm, E, Am

(Chorus)

Guitar 1
e|-----------------------|
B|-----------------------|
G|-----------------------|
D|---777-222-333--5-6-5--|
A|---777-222-333--x-x-x--|
E|---555-000-111--3-4-3--|
PM   ..  ..  ..

The Second guitar is the same thing only play it in higher octaves.


I can't figure out the bridge in between it. But it's pretty much just the Intro clean 
a slight delay I think.

Cheers!
            
Submit corrections


        Pierce The Gates lessons Hard to play? Try these video lessons and learn fast Pierce The Gates lessons
        
↑ Back to top | Tablatures and chords for acoustic guitar and electric guitar, ukulele, drums are parodies/interpretations of the original songs. You may use it for private study, scholarship, research or language learning purposes only