» » »

Nizlopi - Girls Tabs

Artists:  A B C D E F G H I J K L M N O P Q R S T U V W X Y Z # 

Girls Tabs

(ver. 1) Click to play this song!
Nizlopi
 Rating:
4.3/5 (6 votes)

 Girls lessons Tabs too difficult? Try these video lessons and learn fast
 
                -------------------------------------------------------------------------------
-------------------------------------------------------------------------------

first tab! This song is so good it's forced me to join the tabbing community.

this isnt entirely correct as the cello tends to drown out the complex parts and the 
at times sounds like guitar (e.g. end of verses), but Nizlopi rarely play a song the same 
twice anyway so just have fun and improvise.

Tuning:standard
verse

"They go deep with their love and fear... ..."
E|-----------------------------------------------|
A|-0----------0---------0----------------0-------|
D|------2-2--------2-2-------4-4--------------2--|
G|--------------------------------------------4--|
B|--0-0--0-0---0-0--0-0--0-0--0-0---------0-0-4--|
e|----0----------0---------0------x2--------0----|

"If you rub yourself long enough... ..."
E|------------------------------------------|
A|-0---0---0---0---4---4---4---4---2--2-2---|
D|--2---2---2---2---6---6---6---6-----------|
G|----------------------------------4----4--|
B|---0---0---0---0---0---0---0---0--0----0--|
e|---0---0---0---0---0---0---0---0--0----0--|

"Straight to your heart... ..."
E|--------------------------------------------------------------------------------------|
A|-0---0---0---0---4---4---4---4---2----------------------------------------------------|
D|--2---2---2---2---6---6---6---6--4----------------------------------------------------|
G|---2---2---2---2---6---6---6---6-4----------------------------------------------------|
B|---0---0---0---0---0---0---0---0-0----------------------------------------------------|
e|---0---0---0---0---0---0---0---0-0----------------------------------------------------|

"Gotta love and forgive, or you can't breathe (whattay line!!)"
E|-------------------------------------0--|
A|---------------------------2-0-------1--|
D|----2---2---2---2-2------2-4-2-------2--|
G|---2-2-2---2-2-2---2-2--2--4-2-------2--|
B|--0---0---0---0-----0--0---2-0-------0--|
e|-0-------0------------0----2-0---x2--0--|
  last time through add an E:- like so
            
Submit corrections


        Girls lessons Hard to play? Try these video lessons and learn fast Girls lessons
        
↑ Back to top | Tablatures and chords for acoustic guitar and electric guitar, ukulele, drums are parodies/interpretations of the original songs. You may use it for private study, scholarship, research or language learning purposes only