Home » N » Nine Black Alps »

Nine Black Alps - Shot Down Tabs

Artists:  A B C D E F G H I J K L M N O P Q R S T U V W X Y Z # 

Shot Down Tabs

(ver. 3) Click to play this song!
Nine Black Alps
hey this songs in standard tuning
hope u enjoy this song any problems let us know :)

rate plz :)

into

intro chord is
   A7                                 A7
e--5--/                            e--x---/
b--5--/                            b--10--/
g--6--/   then other guitar plays  g--12--/
d--5--/                            d--11--/
a--7--/                            a--12--/
E--5--/                            E--x---/

verse
   F   A  F  A   F   A  D  E
e--------------------------------   e--x---|
b--------------------------------   b--10--|  then repeat
g--10-----10-----10-----7--9-----   g--12--|    chords
d--10--7--10--7--10--7--7--9-----   d--11--|
a--8---7--8---7--8---7--5--7-----   a--12--|
E------5------5------5-----------   E--x---|


bridge

    D            A7
e--10------------x-----------|
b--10------------10----------|
g--11------------12----------|
d--12------------11----------|
a--12------------12----------|
E--10------------x-----------|


chorus


e---------------------------------|
b---------------------------------|
g--10-----------------------------|
d--10--10--2--5/7--7/9--9/10--12--|
a--8---10--2--5/7--7/9--9/10--12--|
E------8---0--3/5--5/7--7/8---10--|

basicly the same second time just different timin

then it goes back to into chord, and this is my version of the solo.
its not 100% but it will do

solo

e---------------------------------------------------------|
b-----------------------------------------4-66-444-66-4---|
g--b6r-4-------4---4--b6r-4-------4---4h6-----------------|
d--------5-555---5----------5-555---5---------------------|
a---------------------------------------------------------|
E---------------------------------------------------------|

e--------------------------------------------------------------|
b--9-9-9h11p9-9-99-9h11p9-9-9-9h11p9-99999/14-14-14-9-9-9h11p9-|
g--------------------------------------------------------------|
d--------------------------------------------------------------|
a--------------------------------------------------------------|
E--------------------------------------------------------------|

e----------------------------|
b--99999-7-------------------|
g----------9-7-9-7777-9-777--|
d----------------------------|
a----------------------------|
E----------------------------|


cheers for trying my tab take care
if u have any comments let me know
cheers
            
Submit corrections

↑ Back to top | Tablatures and chords for acoustic guitar and electric guitar, ukulele, drums are parodies/interpretations of the original songs. You may use it for private study, scholarship, research or language learning purposes only