Home » N » Nine Black Alps »

Nine Black Alps - Pocket Full Of Stars Tabs

Artists:  A B C D E F G H I J K L M N O P Q R S T U V W X Y Z # 

Pocket Full Of Stars Tabs

(ver. 2) Click to play this song!
Nine Black Alps
-------------------------------------------------------------------------------
                            Pocket Full Of Stars - Nine Black Alps
-------------------------------------------------------------------------------


Tuning: Standard (EADGBe)
Pretty easy and fun song to play along with. I'm a little
unsure about the bridge, but the rest sounds fine to me.

The intro, verse, choruses and outro all go like-

    Am              C               G               D
e|--------0-------0-------0-------0-------3-------3-------2----------------|
B|----1-------1-------1-------1-------0-------0-------3-------3---0--------|
G|------2-------2-------0-------0-------0-------0-------2-------2----------|
D|--------------------------------------------------0-------0--------------|
A|--0-------0-------3-------3----------------------------------------------|
E|----------------------------------3-------3------------------------------|

Then in the bridge, a second guitar plays this twice- 

e|-------------------------------------------------------------------------|
B|-------------------------------------------------------------------------|
G|-------------------------------------------------------------------------|
D|--------------0---2--4--5------------------------------------------------|
A|--0---2---3--------------------------------------------------------------|
E|-------------------------------------------------------------------------|

End by strumming C

| /  slide up
| \  slide down
| h  hammer-on
| p  pull-off
| ~  vibrato
| +  harmonic
| x  Mute note
===============================================================================
            
Submit corrections

↑ Back to top | Tablatures and chords for acoustic guitar and electric guitar, ukulele, drums are parodies/interpretations of the original songs. You may use it for private study, scholarship, research or language learning purposes only