» » »

Nile - Von Unaussprechlichen Kulten Tabs

Artists:  A B C D E F G H I J K L M N O P Q R S T U V W X Y Z # 

Von Unaussprechlichen Kulten Tabs

(ver. 2) Click to play this song!
Nile
 Rating:
4/5 (4 votes)

 Von Unaussprechlichen Kulten lessons Tabs too difficult? Try these video lessons and learn fast
 
                
Band:  Nile 

Copyright (c)  RELAPSE RECORDS (2005) 
Version 1.0 - 27/08/05 - 31/08/05 

.  - palm mute           /  - slide up 
\  - slide down to       ~  - vibrato 
h  - hammer on           b  - Bend 
p  - pull off            Suffixes for bend 
t  - tap                 f  - full bend    h - half bend 
ph - pinched harmonic    q  - quarter bend t - tap bend 
*  - see comment         ^  - Hold bend    r release bend 
x  - Stuccatto           ~  - vibrato bend 
,  - slight palm mute    () - ghost note, sustained note 
<> - Trill 
tr[...] -Tremolo picking (see also- " ) 
[ ]- Pale notes: There but give precedence to other notes; 
Used mainly in chords. 
// - Long Slide Up        \\ - Long Slide Down 


Tuning A E A D F# B 

Notes: This is just how I play it, my own interpretation so dont 
expect it to be 100% accurate :) 
Listen to CD for timing (tab spacing is often imprecise) 
There are, as ever, various performance differences in riffs, but 
these are mainly just the same parts, only a third or an 
octave higher, so I dont see a need to tab those out. 

Riff A: 
                  _____ 
                 /Sweep\ 
|------------------------------------------------------------------| 
|------------------------------------------------------------------| 
|------------------------------------------/10"9"------------------| 
|-3------3-6-5~~----------------3------3-6~------/10"9"------------| 
|-3--2-5----------4h7p4-3~------3--2-5-----------------10"9"-6"5"--| 
|-3-------------(5)--------6~5~-3----------------------------------| 
                 . 
|------------------------------------------------------------------| 
|------------------------------------------------------------------| 
|------------------------------------------/10"9"------------------| 
|-3------3-6-5~~----------------3------3-6~------/10"9"------------| 
|-3--2-5----------4h7p4-3~------3--2-5-----------------10"9"-6"5"--| 
|-3-------------(5)--------6~5~-3----------------------------------| 
     tr.......   .         tr..    tr..... 

Riff B1: 
|-------------------------------------------------------| 
|-------------------------------------------------------| 
|-------------------------------------------------------| 
|--------5\\---------5\\---------5\\--------------------| 
|-0h5-5--5\\--0h5-5--5\\--0h5-5--5\\----/8"-8"-7"\4"-4"-| 
|-0h5-5--5\\--0h5-5--5\\--0h5-5--5\\--0h/8"-8"-7"\4"-4"-| 
                                         *. .  .  .  . 
Riff B2: 
|-----------------------------------------------------------| 
|-----------------------------------------------------------| 
|-----------------------------------------------------------| 
|-----------------------------------------------------------| 
|-0h5-5-0-5-4-0-0h5-5-0-5-4-0-0h5-5-0-5-4-0-/8"-8"-7"\4"-4"-| 
|-0h5-5-0-5-4-0-0h5-5-0-5-4-0-0h5-5-0-5-4-0-/8"-8"-7"\4"-4"-| 
        . . . .                   . . . .    *. .  .  .  . 
Riff B3: 
|---------------------------------------------------------| 
|---------------------------------------------------------| 
|---------------------------------------------------------| 
|----------------------5\\--------------------------------| 
|-0h5-5-0-5-4-0-0h5-5--5\\--0h5-5-0-5-4-0-/8"-8"-7"\4"-4"-| 
|-0h5-5-0-5-4-0-0h5-5--5\\--0h5-5-0-5-4-0-/8"-8"-7"\4"-4"-| 
        . . . .                   . . . .  *. .  .  .  . 
*Palm mute bottom notes, accentuate top. 

                                ________________ 
             Bridge            /  Two Guitars   \ 
|----------|--------------------------------------| 
|----------|--------------------------------------| 
|-5~---(5)-|--------------------------------------| 
|-3~---(3)-|---3-[0-1-4-4-3-0]-3-/7~-10~-9-9~-(3)-| 
|-3~---(3)-|---3--0-1-4-4-3-0--3-----(3)-------3--| 
|-3~---(3)-|---3---------------3-----(3)-------3--| 
                   . . . . . .                 * 
*Skip this chord on the last time and play: 

|---| 
|---| 
|---| 
|-5-| 
|-5-| 
|-5-| 

Riff C: 
|----------------------------|------------------------------------| 
|----------------------------|------------------------------------| 
|----------------------------|------------------------------------| 
|---------------------333333-|-666666555555-----------------------| 
|---------222222555555-------|-------------4h7p4-3333-------------| 
|-33333333-------------------|-----------------------666655553333-| 
  ..........................   ............tr... ................ 
                                       ______ 
                                      /Sweep \ 
|----------------------------|------------------------------------| 
|----------------------------|------------------------------------| 
|----------------------------|----------9h10p9--------------------| 
|---------------------333333-|-666666-10------10~-9~--------------| 
|---------222222555555-------|----------------------10~-9~-6~-5~--| 
|-33333333-------------------|------------------------------------| 
  ..........................   ...... 

Riff D: 
|--------------------------------|----------------------------------| 
|--------------------------------|----------------------------------| 
|--------------------------------|----------------------------------| 
|-5\-/5~5~\-/3~-(3)/5~-5qb~------|--5\-/5~5~\-/3~-(3)/5~-5qb~-------| 
|-5\-----------------------0-5-7-|--5\------------------------0-4-4-| 
|-5\-----------------------0-5-7-|--5\------------------------0-4-4-| 
                           . . .                              . . . 

Riff E: 
|-------------------------------------------------------| 
|-------------------------------------------------------| 
|---------11-10-----------------------7-6-11-10-14-13-9-| 
|-0--------------0--------------0-----------------------| 
|-0-3-0--/9--8---0-3-0-5-8-7-4--0-3-0-5-4-9--8--12-11-7-| 
|-0-3-0----------0-3-0-5-8-7-4--0-3-0-------------------| 
    . .            . . , , , ,    . . 

|--------------------------------------------------------------| 
|--------------------------------------------------------------| 
|---------9qb-8qb------------7-10-6-6--------7-6-11-10-14-13-9-| 
|-0-----------------0------------------0-----------------------| 
|-0--3-0--7qb-6qb---0-3-1-0--5-8--4-4--0-3-0-5-4-9--8--12-11-7-| 
|-0--3-0------------0-3-1-0------------0-3-0-------------------| 
     . .              . . .              . . 

Riff F: 
(This is played with the horns or whatever they are, I couldnt 
quite seperate it but this sounds good enough) 
|-------------------------------------------------| 
|-------------------------------------------------| 
|-------------------------------------------------| 
|-------------------------------------------------| 
|-0-1-4-3--0-1-6-5-2-3--1-0-6-5-2-3--0-1-6-5-10-9-| 
|-0-1-4-3--0-1-6-5-2-3--1-0-6-5-2-3--0-1-6-5-10-9-| 
                        . . 
|--------------------------| 
|--------------------------| 
|--------------------------| 
|-----5\------6\------6\---| 
|-0-1-5\--0-1-6\--0-1-6\-5-| 
|-0-1-5\--0-1-6\--0-1-6\-5-| 
  . .     . .     . . 

Riff G1: 
|--------------| 
|--------------| 
|--------------| 
|------0-1-3-4-| 
|-1-0--0-1-3-4-| 
|-1-0--0-1-3-4-| 
  . . 

Riff G2: 
|------------------------------| 
|------------------------------| 
|------------------------------| 
|------------------------------| 
|-1-0--------------------------| 
|-1-0-000000111111333333444444-| 
  . . ,,,,,,,,,,,,,,,,,,,,,,,, 

Solo Rhythm A: 
|----------------------------------| 
|----------------------------------| 
|----------------------------------| 
|----------------------------------| 
|----------------------------------| 
|-44444444000000003333333300000000-| 
  ................................ 
|----------------------------------| 
|----------------------------------| 
|----------------------------------| 
|----------------------------------| 
|----------------------------------| 
|-77777777444444446666666633333333-| 
  ................................ 

Solo Rhythm B: 
|-----------------------------------------------------| 
|-----------------------------------------------------| 
|-----------------------------------------------------| 
|-----------------------------------------------------| 
|-12~12~--12-13-12-9-12--12-12~-12-13-12-9-6-5---0----| 
|-12~12~--12-13-12-9-12--12-12~-12-13-12-9-6-5---0----| 

Solo Rhythm C: 
|----------------------| 
|----------------------| 
|----------------------| 
|-7-6------------------| 
|-5-4------------------| 
|-----4444000077776666-| 
      ................ 

Solo End: 
|---------| 
|---------| 
|---------| 
|---------| 
|-5-5-4-0-| 
|-5-5-4-0-| 
  . . . . 

Solo: 
Not going to be 100% accurate, but most of the melodic parts 
are here, its just the fast runs I have problems with so dont 
expect them to be perfect. For most notes, if they arent 
trem picked(ie the runs), then add a small vibrato to them. 

|------------------------|--------------------------------| 
|------------------------|--------------------------------| 
|-/8~~~~~~~~~~~-8hbr~~~--|--------------------------------| 
|------------------------|-7-8-10-10-7-8-8-10-11-11-10-11-| 
|------------------------|--------------------------------| 
|------------------------|--------------------------------| 

|------------------------|---------------------------------------| 
|-/9~~~~~~~~~~~~---------|-9h10-12-12-10-/12--10h12-13-13-10-12~-| 
|------------------------|---------------------------------------| 
|------------------------|---------------------------------------| 
|------------------------|---------------------------------------| 
|------------------------|---------------------------------------| 
                       ______ 
                      / Group\ 
|------------------------------------------| 
|-16fbr(17)-(17)~~-16-18-18-18-16-18-20fb~-| 
|------------------------------------------| 
|------------------------------------------| 
|------------------------------------------| 
|------------------------------------------| 

|------------------------------------------------| 
|-19~-20~20~--17-19-20-20-17-19-16h17-19h20-19~~-| 
|------------------------------------------------| 
|------------------------------------------------| 
|------------------------------------------------| 
|------------------------------------------------| 

|----------------201917\16-------------------------------| 
|-2016-1915-1613-----------191816\15---------------------| 
|-----------------------------------181715\14--141517/18-| 
|--------------------------------------------15----------| 
|--------------------------------------------------------| 
|--------------------------------------------------------| 

|----------161719/20-171920/21-|----15h16-----14h15-----15h16---| 
|-151618/19--------------------|---15---15---14---14---15---15--| 
|------------------------------|--16--------15--------16--------| 
|------------------------------|-17--------16--------17---------| 
|------------------------------|--------------------------------| 
|------------------------------|--------------------------------| 

This measure is harmonized with a second guitar (not tabbed, use as a 
reference only) 
|----------------------------------------------| 
|-16~15~-13~12~---16~-15~-13-12----------------| 
|-------------------------------12-11-12-12~~~-| 
|----------------------------------------------| 
|----------------------------------------------| 
|----------------------------------------------| 

|-------------------16161816161916191816---------------------| 
|-------------161819--------------------17171917172017201917-| 
|-------161819-----------------------------------------------| 
|-151718-----------------------------------------------------| 
|------------------------------------------------------------| 
|------------------------------------------------------------| 

|-----------------------------------------------------------------| 
|-----------------------------------------------------------------| 
|-19181615------------18--18-15~--------18~---18-17~1617-1617-16~~| 
|---------181615-15-16--15------15-16-18---15---------------------| 
|-----------------------------------------------------------------| 
|-----------------------------------------------------------------| 

Solo is now taken over by another guitar, with the last measure 
ringing out over next: 
|-------------0-------------------------------| 
|-/9~~~-9h10p9h10p9-8~~-6~~--/9~~-9h10p9-5~~~-| 
|---------------------------------------------| 
|---------------------------------------------| 
|---------------------------------------------| 
|---------------------------------------------| 
   ________ 
  /  [x8]  \ 
|-1613121212-161312-131210------------------------------1012/19~~~--| 
|-------------------------131210-------------------101213-----------| 
|------------------------------1312109--------101213----------------| 
|------------------------------------1312101213---------------------| 
|-------------------------------------------------------------------| 
|-------------------------------------------------------------------| 
                                             ________________ 
                                            /      [x2]      \** 
|----------------------------------18201820-18-19-21-22-21-19---| 
|----------------------------182018-----------------------------| 
|-/b19r19~~----------18201820-----------------------------------| 
|---*--------18201820-------------------------------------------| 
|---------------------------------------------------------------| 
|---------------------------------------------------------------| 
*Prebent full step, release slowly 
**Phrase is spaced for clarity 

|-1821-1918-----------------151618/24//-20191716--------------| 
|----------20191716-----------------------------201917--------| 
|------------------19181615-----------------------------------| 
|------------------------------------------------------181615-| 
|-------------------------------------------------------------| 
|-------------------------------------------------------------| 

|---------------------------------------------192019-| 
|-----------------------------------------1920-------| 
|-------151618-------181921-------19201920-----------| 
|-151618-------181921-------192019-------------------| 
|----------------------------------------------------| 
|----------------------------------------------------| 

|--19h20-20fb~~r-19-20---19-20-21fb~~r~19h20-19-20-24b(27)~~~~~-| 
|---------------------------------------------------------------| 
|---------------------------------------------------------------| 
|---------------------------------------------------------------| 
|---------------------------------------------------------------| 
|---------------------------------------------------------------| 

Riff H: 
(Listen to CD for timing. The way I noted this down was cryptic at 
best, but the notes should be correct.) 
|---------------------------| 
|---------------------------| 
|----------8-11-11-11-11-11-| 
|-0-------------------------| 
|-0-12-11--6-9--9--9--9--9--| 
|-0-12-11-------------------| 

|------------------------------------------------------| 
|------------------------------------------------------| 
|----------------------7-7-----------------------7-7---| 
|-0-----10"9"----------------0----10"9"----------------| 
|-0----------10"9"6"5"-5-5---0---------10"9"6"5"-5-5---| 
|-0--------------------------0-------------------------| 
         . . .  . . .              . . .  . . . 
|------------------------------------------------| 
|------------------------------------------------| 
|--------11-11\9-9-9-----------------------7-7---| 
|----------------------0----10"9"----------------| 
|-1-3-3---8--8\7-7-7---0---------10"9"6"5"-5-5---| 
|-1-3-3----------------0-------------------------| 
  . . .                       . . .  . . . 
|------------------------------------------| 
|------------------------------------------| 
|----------------------7-7-----------------| 
|-0-----10"9"----------------0-------------| 
|-0----------10"9"6"5"-5-5---0-12-11-3-3-0-| 
|-0--------------------------0-12-11-3-3-0-| 
         . . .  . . .                . . . 
|---------------------------| 
|---------------------------| 
|----------8-11-11-11-11-11-| 
|-0-------------------------| 
|-0-12-11--6-9--9--9--9--9--| 
|-0-12-11-------------------| 

|----------------------| 
|----------------------| 
|----------------------| 
|--0--6"..............-| 
|--0--6"..............-| 
|--0--6"..............-| 

Outro: 
|---------------------------------------------------| 
|---------------------------------------------------| 
|---------------------------------------/7-8-11-10--| 
|-2-/10~-9~--6~---3-6-3h6p3-2~~---------------------| 
|-2-----------------------------0-4-4-0-/5-6-9--8---| 
|-2-------------0---------------0-4-4-0-------------| 
                . , ,           . . . . 

Song Structure: 
Riff A 
Riff B1 
Riff B2 
Riff B1 
Riff B2 
Riff B3 
Riff B2 
Bridge   (x3) 
Riff C 
Riff D   (x4) 
Riff E 
Riff F 
Riff G1  (x2) 
Riff G2  (x2) 

Solo+... 
-------- 
Solo Rhythm A (x3) 
Solo Rhythm B 
Solo Rhythm A (x2) 
Solo Rhythm C (x4) 
Solo Rhythm B (x3) 
Solo End 
-------- 

Riff H 
Outro    (x4) 
(Continue playing outro, Fade out) 

END
            
Submit corrections


        Von Unaussprechlichen Kulten lessons Hard to play? Try these video lessons and learn fast Von Unaussprechlichen Kulten lessons
        
↑ Back to top | Tablatures and chords for acoustic guitar and electric guitar, ukulele, drums are parodies/interpretations of the original songs. You may use it for private study, scholarship, research or language learning purposes only