» » »

Nile - Black Flames Tabs

Artists:  A B C D E F G H I J K L M N O P Q R S T U V W X Y Z # 

Black Flames Tabs

(ver. 1) Click to play this song!
Nile
 Rating:
4/5 (4 votes)

 Black Flames lessons Tabs too difficult? Try these video lessons and learn fast
 
                NILE - THE BLACK FLAME
(Black Seeds Of Vengeance, 2000)

Key
= after note = vibrato
^ after note = heavy vibrato 
\ = slide down
/ = slide up
+ = tap
h = hammer
p = pull
n = natural harmonic
s = pinching harmonic (squeal)
* = tremolo pick
t = trill
b = bend
|-3-| = triplet

n number above the tab = play the first part then the first finishing part
			 play the first part a second time and then play the second finishing part
			 etc.

Tune Down 3 1/2 Steps

Riff 1

								  1
A ------------7--6----------------------------------------------- ------------7--6----------------------------------------
E ------7--8----------7-8-7----5--7--7------6-------------------- ------7--8----------7-8-7----5--7--7------5-------------
C --------------------------------------------------------------- ---------------------------------------------4b5--------
G -2---------------------------------------------------3----3---- -2------------------------------------------------------
D -2---------------------------------------------------3----3---- -2------------------------------------------------------
A -0---------------------------------------------------1----1---- -0------------------------------------------------------

  2
A ------------7--6-----------------------------
E ------7--8----------7-8-7----5--7--7------5--
C ---------------------------------------------
G -2-------------------------------------------
D -2-------------------------------------------
A -0-------------------------------------------

Riff 1A

								  1
A --------------------------------------------------------------- --------------------------------------------------------
E ------------5--4----------------------------------------------- ------------5--4----------------------------------------
C ------4--5----------4-5-4----2--4--4------3-------------------- ------4--5----------4-5-4----2--4--4------2-------------
G -2---------------------------------------------------3----3---- -2-------------------------------------------2b3--------
D -2---------------------------------------------------3----3---- -2------------------------------------------------------
A -0---------------------------------------------------1----1---- -0------------------------------------------------------

  2
A ---------------------------------------------
E ------------5--4-----------------------------
C ------4--5----------4-5-4----2--4--4------2--
G -2-------------------------------------------
D -2-------------------------------------------
A -0-------------------------------------------

Riff 2
								    
A ---------------------------------------------2-2-1-1---------------------------------------------------------------------
E -------------4-4-3-3---------------------------------4-4-----------------------------------------------------------------
C -----------------------------------------3-3-------------3-3-----------------------------------------3-3-2-2-0-0-2-2-3-3-
G ---------5-5---------5-5-----4-4-1-1-4-4---------------------4-4-------------5-5-4-4-----4-4-5-5-------------------------
D -3-3-6-6-----------------3-3---------------------------------------------------------------------------------------------
A -----------------------------------------------------------------0-0-0-0-0-0---------0-0---------3-3---------------------
					   
A ------------------------------------------------------------------------------------0--2--
E ------------------------------------------------------------------0--------0--2--3--------
C -2-2-0-0----------------------------------6--3-----------3--5--6--------------------------
G ---------0-0---------3-3-2-2-----2-2-3-3-----------------------------2--4-----------------
D -------------2-2-1-1---------1-1----------------4-----4-----------------------------------
A ---------------------------------------------------6--------------------------------------

Riff 3

A ---------------------------------------------2-2-1-1-----------------------------------------------------10-10-8 -8 -6-6-
E -------------4-4-3-3-----3-3-4-4---------------------4-4-----------------------------------7-7-8-8-------11-11-10-10-8-8-
C -----------------------------------------3-3-------------3-3---------------------------7-7-------------------------------
G ---------5-5---------5-5---------1-1-4-4---------------------4-4---------------8-8-9-9-----------------------------------
D -3-3-6-6---------------------------------------------------------7-7-9-9-10-10---------------------10-10-----------------
A -------------------------------------------------------------------------------------------------------------------------

A -8 -8 -10-10-8 -8- 6-6-------------3-3-2-2-------------------------5--6--8--10--9--6-----------6--8--9--
E -10-10-11-11-10-10-8-8------------------------------------------8---------------------------------------
C -------------------------------4-4---------4-4-3-3-4-4-------7------------------------6--5--6-----------
G -----------------------2-2-5-5-------------------------5--8---------------------------------------------
D --------------------------------------------------------------------------------------------------------
A --------------------------------------------------------------------------------------------------------

A -14----------------8-5---------2-----------------------
E ----15-12--------------6---------3-0-------------------
C ----------11-------------------------------5-2---------
G -------------12----------6-5-3-------4-0-------3-------
D ----------------14-----------------------2-------------
A -------------------------------------------------4-3-1-
   |---3--| |--3---| |-3-| |-3-| |-3-| |-3-| |-3-| |-3-|

Riff 4

A --------------------
E --------------------
C --------------------
G -2------------------
D -2------------------
A -0------------0-1---

Order

Riff 1/1A x 2
Riff 2 x 1
Riff 3 x 1
Riff 4 x 12
            
Submit corrections


        Black Flames lessons Hard to play? Try these video lessons and learn fast Black Flames lessons
        
↑ Back to top | Tablatures and chords for acoustic guitar and electric guitar, ukulele, drums are parodies/interpretations of the original songs. You may use it for private study, scholarship, research or language learning purposes only